Oops, an error
Loading. Please wait.

Walking On The Edge tab

2,118 views 1 this week
no commentswrite comment
1 2 3 4 5
1 last vote to show rating
add to favorites
×
Save as Personal and add changes to this tab that will be seen only by you. Learn more ›
×
You can save this tab as Personal to edit and correct it or add notes. All changes will be seen only by you. Learn more »
launch autoscroll
font size
0
reset
how to read this tab
guitar tuner
edit
Autoscroll
slow
fast
+/-
esc
set tempo
stop
-------------------------------------------------------------------------------
                             Walking On the Edge-Scorpions
-------------------------------------------------------------------------------

I only have the Rhythm Guitar for this song. I am trying to finish tabbing the lead part.


Tuning: STANDARD TUNING


INTRO:

e|--0-------5--0-0-0-0----0----0-------5---0--0----------------|
B|----3--------1-1-1-1--3-1------3---------1----3--------------|
G|------2------0-0-0-0--2-0--------2-------0------2------------|
D|0-------3----2-2-2-2--0-2--0-------3-----2--------0----------|
A|-------------3-3-3-3----3----------------3-------------------|
E|-------------------------------------------------------------|

e|--0-------5--0-0-0-0-----0----0-------5--0-----------|
B|----3--------1-1-1-1--3--1------3--------1-----------|
G|------2------0-0-0-0--2--0--------2------0-----------|
D|0-------3----2-2-2-2--0--2--0-------3----2-----------|
A|-------------3-3-3-3-----3---------------3-----------|
E|-----------------------------------------------------|

VERSE:

Welcome to a trip Into my hurt feelings  To the center of my soul
e|-----0-----------5---0-0-0-0------0---------0------------5-----0-----0---|
B|--------3------------1-1-1-1--3---1------------3---------------1--3--1---|
G|-----------2---------0-0-0-0--2---0----------------2-----------0--2--0---|
D|0-------------3------2-2-2-2--0---2----0--------------3--------2--0--2---|
A|---------------------3-3-3-3------3----------------------------3-----3---|
E|-------------------------------------------------------------------------|


You better bring a light To find the house of meanings
e|-----0------------------5----0--0---0----0-------0----|
B|---------3-------------------1--1---1----1---3---1----|
G|-------------2---------------0--0---0----0---2---0----|
D|0----------------3-----------2--2---2----2---0---2----|
A|-----------------------------3--3---3----3-------3----|
E|------------------------------------------------------|

In the labyrinth of yes or no
e|--0------------------5------------------|
B|------3--------------------1--3---1-----|
G|----------2----------------0--2---0-----|
D|0--------------3-----------2--0---2-----|
A|---------------------------3------3-----|
E|----------------------------------------|


BRIDGE:


For you,   life is just like chess If you don't make a move You'll lose the game like this
e|-------------------------------------------------------------------------|
B|-------------------------------------------------------------------------|
G|-------------------------------------------------------------------------|
D|---4-------7-------------------------------------------------------------|
A|---2-------5----------------------------3--------------------------5-----|
E|----------------------------------------1--------------------------3-----|



CHORUS:


Cause you,                 you're walking on the edge
e|------------------------------------------------------|
B|------------------------------------------------------|
G|-----------------------5------------------------------|
D|--------7-7-7--7-7-7---5-------3-------------------5--|
A|--------7-7-7--7-7-7---3-------3-------------------5--|
E|--------5-5-5--5-5-5-----------1-------------------3--|

You,             you chose the way of love and pain
e|------------------------------------------------------|
B|------------------------------------------------------|
G|--------------------5---------------------------------|
D|---7-7-7--7-7-7-----5---------3----------------5------|
A|---7-7-7--7-7-7-----3---------3----------------5------|
E|---5-5-5--5-5-5---------------1----------------3------|

You,                   don't you see the bridge I've built for
e|------------------------------------------------------|
B|------------------------------------------------------|
G|------------------5-----------------------------------|
D|---7-7-7--7-7-7---5---3-------------------5-----------|
A|---7-7-7--7-7-7---3---3-------------------5-----------|
E|---5-5-5--5-5-5-------1-------------------3-----------|

 you            it's just one step to start again
e|------------------------------------------------------|
B|------------------------------------------------------|
G|--------------------5---------------------------------|
D|--7-7-7--7-7-7------5--------3---------------5--------|
A|--7-7-7--7-7-7------3--------3---------------5--------|
E|--5-5-5--5-5-5---------------1---------------3--------|

e|--0-------5--0-0-0-0-----0----0-------5--0-----------|
B|----3--------1-1-1-1--3--1------3--------1-----------|
G|------2------0-0-0-0--2--0--------2------0-----------|
D|0-------3----2-2-2-2--0--2--0-------3----2-----------|
A|-------------3-3-3-3-----3---------------3-----------|
E|-----------------------------------------------------|


verse:


 Welcome to a trip Into my emotions   To the language of my heart
e|-----0-----------5---0-0-0-0------0---------0------------5-----0-----0---|
B|--------3------------1-1-1-1--3---1------------3---------------1--3--1---|
G|-----------2---------0-0-0-0--2---0----------------2-----------0--2--0---|
D|0-------------3------2-2-2-2--0---2----0--------------3--------2--0--2---|
A|---------------------3-3-3-3------3----------------------------3-----3---|
E|-------------------------------------------------------------------------|

 You're sailing on a river   That becomes an  ocean
e|-----0------------------5----0--0---0----0-------0---|
B|---------3-------------------1--1---1----1---3---1---|
G|-------------2---------------0--0---0----0---2---0---|
D|0----------------3-----------2--2---2----2---0---2---|
A|-----------------------------3--3---3----3-------3---|
E|-----------------------------------------------------|

Which you can only cross with love
e|--0------------------5------------------------|
B|------3--------------------------1--3---1-----|
G|----------2----------------------0--2---0-----|
D|0--------------3-----------------2--0---2-----|
A|---------------------------------3------3-----|
E|----------------------------------------------|

For you, life is just like chess If you don't make a move You'll lose the game like this
e|-------------------------------------------------------------------------|
B|-------------------------------------------------------------------------|
G|-------------------------------------------------------------------------|
D|---4----7----------------------------------------------------------------|
A|---2----5-------------------------------3--------------------------5-----|
E|----------------------------------------1--------------------------3-----|


CHORUS:


Cause you,                 you're walking on the edge
e|------------------------------------------------------|
B|------------------------------------------------------|
G|-----------------------5------------------------------|
D|--------7-7-7--7-7-7---5-------3-------------------5--|
A|--------7-7-7--7-7-7---3-------3-------------------5--|
E|--------5-5-5--5-5-5-----------1-------------------3--|

You,             you chose the way of love and pain
e|------------------------------------------------------|
B|------------------------------------------------------|
G|--------------------5---------------------------------|
D|---7-7-7--7-7-7-----5---------3----------------5------|
A|---7-7-7--7-7-7-----3---------3----------------5------|
E|---5-5-5--5-5-5---------------1----------------3------|

You,                   don't you see the bridge I've built for
e|------------------------------------------------------|
B|------------------------------------------------------|
G|------------------5-----------------------------------|
D|---7-7-7--7-7-7---5---3-------------------5-----------|
A|---7-7-7--7-7-7---3---3-------------------5-----------|
E|---5-5-5--5-5-5-------1-------------------3-----------|

 you            it's just one step to start again
e|------------------------------------------------------|
B|------------------------------------------------------|
G|--------------------5---------------------------------|
D|--7-7-7--7-7-7------5--------3---------------5--------|
A|--7-7-7--7-7-7------3--------3---------------5--------|
E|--5-5-5--5-5-5---------------1---------------3--------|



SOLO:

e|-----------------------------------------------------------------------9--9--10|
B|-------8--7----------------8-7--10-8--------8--7----------------8-7-10---------|
G|--7--9-----------7-----7-9-------------7--9-----------7-----7-9----------------|
D|7-----------7--5-----7---------------7------------7-5-----7--------------------|
A|-------------------------------------------------------------------------------|
E|-------------------------------------------------------------------------------|

Please Rate and Comment

************************************

| /   slide up
| \   slide down
| h   hammer-on
| p   pull-off
| ~   vibrato
| +   harmonic
| x   Mute note
| b   Bend
| pb  Pre-bend
| br  Bend release
| pbr Pre-bend release
| brb Bend release bend

************************************

            
            
Suggest correction
Creating personal tab
Creating personal tab
You can edit any tab online and save it as your Personal.

You can edit, replace or remove any tab part or add personal notes – all changes will be seen only by you.

Personal tabs can be accessed anytime from any device, even offline.
Learn more »
Give kudos to tab author, rate the tab!
1 2 3 4 5
comments
print report bad tab
guest
You may want to rate the tab now too:
select rating
Wanna post a correction for this tab? Suggest correction