Oops, an error
Loading. Please wait.

We Were Born To Fly tab

version 1
version 1

Whole song

Interactive

3,020 views 1 this week
no commentswrite comment
1 2 3 4 5
1 last vote to show rating
add to favorites
×
Save as Personal and add changes to this tab that will be seen only by you. Learn more ›
×
You can save this tab as Personal to edit and correct it or add notes. All changes will be seen only by you. Learn more »
launch autoscroll
font size
0
reset
how to read this tab
guitar tuner
edit
Autoscroll
slow
fast
+/-
esc
set tempo
stop
Band: Scorpions
Song: We Were Born To Fly


Guitar 1:


             E.  E.  E.  E.  E.  E.  E.  E.   
D||-------|----------------------------------|
A||-------|----------------------------------|
F||-------|----------------------------------|
C||-------|--6---6---6---6---6---6---6---6---|
G||-------|--4---4---4---4---4---4---4---4---|
D||-------|--4---4---4---4---4---4---4---4---|


  E.  E.  E.  E.  E.  E.  E.  E.     E.  E.  E.  E.  E.  E.  E.  E.   
----------------------------------|----------------------------------|
----------------------------------|----------------------------------|
----------------------------------|----------------------------------|
--6---6---6---6---6---6---6---6---|--6---6---6---6---6---6---6---6---|
--4---4---4---4---4---4---4---4---|--6---6---6---6---6---6---6---6---|
--4---4---4---4---4---4---4---4---|--4---4---4---4---4---4---4---4---|


  E.  E.  E.  E.  E.  E.  E.  E.     E.  E.  E.  E.  E.  E.  E.  E.   
----------------------------------|----------------------------------|
----------------------------------|----------------------------------|
----------------------------------|----------------------------------|
--6---6---6---6---6---6---6---6---|--6---6---6---6---6---6---6---6---|
--6---6---6---6---6---6---6---6---|--4---4---4---4---4---4---4---4---|
--4---4---4---4---4---4---4---4---|--4---4---4---4---4---4---4---4---|


  E.  E.  E.  E.  E.  E.  E.  E.     E.  E.  E.  E.  E.  E.  E.  E.   
----------------------------------|----------------------------------|
----------------------------------|----------------------------------|
----------------------------------|----------------------------------|
--6---6---6---6---6---6---6---6---|--6---6---6---6---6---6---6---6---|
--4---4---4---4---4---4---4---4---|--6---6---6---6---6---6---6---6---|
--4---4---4---4---4---4---4---4---|--4---4---4---4---4---4---4---4---|


  Q    Q    Q    Q    Q    Q       Q    Q    Q    Q    Q    Q             
--------------------------------|--------------------------------|-------|
--------------------------------|--------------------------------|-------|
--------------------------------|--------------------------------|-------|
--6------------------------L----|---------------------------L----|-------|
--6------------------------L----|---------------------------L----|-------|
--4------------------------L----|---------------------------L----|-------|


          E.  E.  E.  E.  E.  E.  E.  E.     Q    Q    Q    Q    Q    Q     
-------|----------------------------------|--------------------------------|
-------|----------------------2-----------|--------------------------------|
-------|----------4-----------------------|--------------------------------|
-------|------2-----------4---------------|--------------------------------|
-------|--0-----------2-----------4-------|---------------------------L----|
-------|----------------------------------|--------------------------------|


                  E.  E.  E.  E.  E.  E.  E.  E.   
-------|-------|----------------------------------|
-------|-------|----------------------2-------L---|
-------|-------|----------4-----------------------|
-------|-------|------2-----------4---------------|
-------|-------|--0-----------2-------------------|
-------|-------|----------------------------------|


  E.  E.  E.  E.  E.  E.  E.  E.     E.  E.  E.  E.  E.  E.  E.  E.   
----------------------------------|----------------------------------|
----------5---------------4-------|----------2---------------2-------|
----------6---------------4-------|--------------------------2-------|
------6-------6-------4-------4---|------2-------2-------2-------2---|
--4---------------2---------------|--0---------------0---------------|
----------------------------------|----------------------------------|


  E.  E.  E.  E.  E.  E.  E.  E.     E.  E.  E.  E.  E.  E.  E.  E.   
----------------------------------|----------------------------------|
----------5---------------4-------|----------2---------------2-------|
----------6---------------4-------|--------------------------2-------|
------6-------6-------4-------4---|------2-------2-------2-------2---|
--4---------------2---------------|--0---------------0---------------|
----------------------------------|----------------------------------|


  E.  E.  E.  E.  E.  E.  E.  E.     E.  E.  E.  E.  E.  E.  E.  E.   
----------------------------------|----------------------------------|
----------------------------------|----------------------------------|
----------------------------------|----------------------------------|
--6---6---6---6---6---------------|--6---6---6---6---6---6---6---6---|
--6---6---6---6---6---------------|--4---4---4---4---4---4---4---4---|
--4---4---4---4---4---------------|--4---4---4---4---4---4---4---4---|


  E.  E.  E.  E.  E.  E.  E.  E.     E.  E.  E.  E.  E.  E.  E.  E.   
----------------------------------|----------------------------------|
----------------------------------|----------------------------------|
----------------------------------|----------------------------------|
--6---6---6---6---6---6---6---6---|--7---7---7---7---7---7---7---7---|
--4---4---4---4---4---4---4---4---|--7---7---7---7---7---7---7---7---|
--4---4---4---4---4---4---4---4---|--5---5---5---5---5---5---5---5---|


  E.  E.  E.  E.  E.  E.  E.  E.     E.  E.  E.  E.  E.  E.  E.  E.   
----------------------------------|----------------------------------|
----------------------------------|----------------------------------|
----------------------------------|----------------------------------|
--4---4---4---4---4---4---4---4---|--6---6---6---6---6---6---6---6---|
--4---4---4---4---4---4---4---4---|--4---4---4---4---4---4---4---4---|
--2---2---2---2---2---2---2---2---|--4---4---4---4---4---4---4---4---|


  E.  E.  E.  E.  E.  E.  E.  E.     E.  E.  E.  E.  E.  E.  E.  E.   
----------------------------------|----------------------------------|
----------------------------------|----------------------------------|
----------------------------------|----------------------------------|
--6---6---6---6---6---6---6---6---|--7---7---7---7---7---7---7---7---|
--4---4---4---4---4---4---4---4---|--7---7---7---7---7---7---7---7---|
--4---4---4---4---4---4---4---4---|--5---5---5---5---5---5---5---5---|


  E.  E.  E.  E.  E.  E.  E.  E.     E.  E.  E.  E.  E.  E.  E.  E.   
----------------------------------|----------------------------------|
----------------------------------|----------------------------------|
----------------------------------|----------------------------------|
--4---4---4---4---4---4---4---4---|--6---6---6---6---6---6---6---6---|
--4---4---4---4---4---4---4---4---|--4---4---4---4---4---4---4---4---|
--2---2---2---2---2---2---2---2---|--4---4---4---4---4---4---4---4---|


  E.  E.  E.  E.  E.  E.  E.  E.     E.  E.  E.  E.  E.  E.  E.  E.   
----------------------------------|----------------------------------|
----------------------------------|----------------------------------|
----------------------------------|----------------------------------|
--6---6---6---6---6---6---6---6---|--6---6---6---6---6---6---6---6---|
--4---4---4---4---4---4---4---4---|--6---6---6---6---6---6---6---6---|
--4---4---4---4---4---4---4---4---|--4---4---4---4---4---4---4---4---|


  Q    Q    Q    Q    Q    Q       Q    Q    Q    Q    Q    Q             
--------------------------------|--------------------------------|-------|
--------------------------------|--------------------------------|-------|
--------------------------------|--------------------------------|-------|
--6------------------------L----|---------------------------L----|-------|
--6------------------------L----|---------------------------L----|-------|
--4------------------------L----|---------------------------L----|-------|


          E.  E.  E.  E.  E.  E.  E.  E.     Q    Q    Q    Q    Q    Q     
-------|----------------------------------|--------------------------------|
-------|----------------------2-----------|--------------------------------|
-------|----------4-----------------------|--------------------------------|
-------|------2-----------4---------------|--------------------------------|
-------|--0-----------2-----------4-------|---------------------------L----|
-------|----------------------------------|--------------------------------|


                  E.  E.  E.  E.  E.  E.  E.  E.   
-------|-------|----------------------------------|
-------|-------|----------------------2-------L---|
-------|-------|----------4-----------------------|
-------|-------|------2-----------4---------------|
-------|-------|--0-----------2-------------------|
-------|-------|----------------------------------|


  E.  E.  E.  E.  E.  E.  E.  E.     E.  E.  E.  E.  E.  E.  E.  E.   
----------------------------------|----------------------------------|
----------5---------------4-------|----------2---------------2-------|
----------6---------------4-------|--------------------------2-------|
------6-------6-------4-------4---|------2-------2-------2-------2---|
--4---------------2---------------|--0---------------0---------------|
----------------------------------|----------------------------------|


  E.  E.  E.  E.  E.  E.  E.  E.     E.  E.  E.  E.  E.  E.  E.  E.   
----------------------------------|----------------------------------|
----------5---------------4-------|----------2---------------2-------|
----------6---------------4-------|--------------------------2-------|
------6-------6-------4-------4---|------2-------2-------2-------2---|
--4---------------2---------------|--0---------------0---------------|
----------------------------------|----------------------------------|


  E.  E.  E.  E.  E.  E.  E.  E.     E.  E.  E.  E.  E.  E.  E.  E.   
----------------------------------|----------------------------------|
----------------------------------|----------------------------------|
----------------------------------|----------------------------------|
--6---6---6---6---6---------------|--6---6---6---6---6---6---6---6---|
--6---6---6---6---6---------------|--4---4---4---4---4---4---4---4---|
--4---4---4---4---4---------------|--4---4---4---4---4---4---4---4---|


  E.  E.  E.  E.  E.  E.  E.  E.     E.  E.  E.  E.  E.  E.  E.  E.   
----------------------------------|----------------------------------|
----------------------------------|----------------------------------|
----------------------------------|----------------------------------|
--6---6---6---6---6---6---6---6---|--7---7---7---7---7---7---7---7---|
--4---4---4---4---4---4---4---4---|--7---7---7---7---7---7---7---7---|
--4---4---4---4---4---4---4---4---|--5---5---5---5---5---5---5---5---|


  E.  E.  E.  E.  E.  E.  E.  E.     E.  E.  E.  E.  E.  E.  E.  E.   
----------------------------------|----------------------------------|
----------------------------------|----------------------------------|
----------------------------------|----------------------------------|
--4---4---4---4---4---4---4---4---|--6---6---6---6---6---6---6---6---|
--4---4---4---4---4---4---4---4---|--4---4---4---4---4---4---4---4---|
--2---2---2---2---2---2---2---2---|--4---4---4---4---4---4---4---4---|


  E.  E.  E.  E.  E.  E.  E.  E.     E.  E.  E.  E.  E.  E.  E.  E.   
----------------------------------|----------------------------------|
----------------------------------|----------------------------------|
----------------------------------|----------------------------------|
--6---6---6---6---6---6---6---6---|--7---7---7---7---7---7---7---7---|
--4---4---4---4---4---4---4---4---|--7---7---7---7---7---7---7---7---|
--4---4---4---4---4---4---4---4---|--5---5---5---5---5---5---5---5---|


  S. S. S. S. S. S. S. S. S. S. S. S. S. S. S. S.  
--------------------------------------------------|
--------------------------------------------------|
--------------------------------------------------|
--------------------------------------------------|
-----4--4-----4--4-----4--4-----4-----4-----4-----|
--0--2--2--0--2--2--0--2--2--0--2--0--2--0--2--0--|


  E.  E.  E.  E.  E.  E.  E.  E.     E.  E.  E.  E.  E.  E.  E.  E.   
----------------------------------|----------------------------------|
----------------------------------|----------------------------------|
----------------------------------|----------------------------------|
--6---6---6---6---6---6---6---6---|--6---6---6---6---6---6---6---6---|
--4---4---4---4---4---4---4---4---|--4---4---4---4---4---4---4---4---|
--4---4---4---4---4---4---4---4---|--4---4---4---4---4---4---4---4---|


  E.  E.  E.  E.  E.  E.  E.  E.     E.  E.  E.  E.  E.  E.  E.  E.   
----------------------------------|----------------------------------|
----------------------------------|----------------------------------|
----------------------------------|----------------------------------|
--6---6---6---6---6---6---6---6---|--6---6---6---6---6---6---6---6---|
--6---6---6---6---6---6---6---6---|--6---6---6---6---6---6---6---6---|
--4---4---4---4---4---4---4---4---|--4---4---4---4---4---4---4---4---|


  E.  E.  E.  E.  E.  E.  E.  E.     E.  E.  E.  E.  E.  E.  E.  E.   
----------------------------------|----------------------------------|
----------------------------------|----------------------------------|
----------------------------------|----------------------------------|
--6---6---6---6---6---6---6---6---|--6---6---6---6---6---6---6---6---|
--4---4---4---4---4---4---4---4---|--4---4---4---4---4---4---4---4---|
--4---4---4---4---4---4---4---4---|--4---4---4---4---4---4---4---4---|


  E.  E.  E.  E.  E.  E.  E.  E.     E.  E.  E.  E.  E.  E.  E.  E.   
----------------------------------|----------------------------------|
----------------------------------|----------------------------------|
----------------------------------|----------------------------------|
--6---6---6---6---6---6---6---6---|--6---6---6---6---6---6---6---6---|
--6---6---6---6---6---6---6---6---|--6---6---6---6---6---6---6---6---|
--4---4---4---4---4---4---4---4---|--4---4---4---4---4---4---4---4---|


  E.  E.  E.  E.  E.  E.  E.  E.     E.  E.  E.  E.  E.  E.  E.  E.   
----------------------------------|----------------------------------|
----------------------------------|----------------------------------|
----------------------------------|----------------------------------|
--2---2---2---2---2---2---2---2---|--6---6---6---6---6---6---6---6---|
--2---2---2---2---2---2---2---2---|--4---4---4---4---4---4---4---4---|
--0---0---0---0---0---0---0---0---|--4---4---4---4---4---4---4---4---|


  E.  E.  E.  E.  E.  E.  E.  E.     E.  E.  E.  E.  E.  E.  E.  E.   
----------------------------------|----------------------------------|
----------------------------------|----------------------------------|
----------------------------------|----------------------------------|
--7---7---7---7---7---7---7---7---|--4---------------------------L---|
--7---7---7---7---7---7---7---7---|--4---------------------------L---|
--5---5---5---5---5---5---5---5---|--2---------------------------L---|


  E.  E.  E.  E.  E.  E.  E.  E.     E.  E.  E.  E.  E.  E.  E.  E.   
----------------------------------|----------------------------------|
----------------------------------|----------------------------------|
----------------------------------|----------------------------------|
--------------L-------------------|--6---6---6---6---6---6---6---6---|
--------------L-------------------|--4---4---4---4---4---4---4---4---|
--------------L-------------------|--4---4---4---4---4---4---4---4---|


  E.  E.  E.  E.  E.  E.  E.  E.     E.  E.  E.  E.  E.  E.  E.  E.   
----------------------------------|----------------------------------|
----------------------------------|----------------------------------|
----------------------------------|----------------------------------|
--6---6---6---6---6---6---6---6---|--7---7---7---7---7---7---7---7---|
--4---4---4---4---4---4---4---4---|--7---7---7---7---7---7---7---7---|
--4---4---4---4---4---4---4---4---|--5---5---5---5---5---5---5---5---|


  E.  E.  E.  E.  E.  E.  E.  E.     E.  E.  E.  E.  E.  E.  E.  E.   
----------------------------------|----------------------------------|
----------------------------------|----------------------------------|
----------------------------------|----------------------------------|
--4---4---4---4---4---4---4---4---|--6---6---6---6---6---6---6---6---|
--4---4---4---4---4---4---4---4---|--4---4---4---4---4---4---4---4---|
--2---2---2---2---2---2---2---2---|--4---4---4---4---4---4---4---4---|


  E.  E.  E.  E.  E.  E.  E.  E.     E.  E.  E.  E.  E.  E.  E.  E.   
----------------------------------|----------------------------------|
----------------------------------|----------------------------------|
----------------------------------|----------------------------------|
--6---6---6---6---6---6---6---6---|--7---7---7---7---7---7---7---7---|
--4---4---4---4---4---4---4---4---|--7---7---7---7---7---7---7---7---|
--4---4---4---4---4---4---4---4---|--5---5---5---5---5---5---5---5---|


  E.  E.  E.  E.  E.  E.  E.  E.     E.  E.  E.  E.  E.  E.  E.  E.   
----------------------------------|----------------------------------|
----------------------------------|----------------------------------|
----------------------------------|----------------------------------|
--4---4---4---4---4---4---4---4---|--6---6---6---6---6---6---6---6---|
--4---4---4---4---4---4---4---4---|--4---4---4---4---4---4---4---4---|
--2---2---2---2---2---2---2---2---|--4---4---4---4---4---4---4---4---|


  E.  E.  E.  E.  E.  E.  E.  E.     E.  E.  E.  E.  E.  E.  E.  E.   
----------------------------------|----------------------------------|
----------------------------------|----------------------------------|
----------------------------------|----------------------------------|
--6---6---6---6---6---6---6---6---|--7---7---7---7---7---7---7---7---|
--4---4---4---4---4---4---4---4---|--7---7---7---7---7---7---7---7---|
--4---4---4---4---4---4---4---4---|--5---5---5---5---5---5---5---5---|


  E.  E.  E.  E.  E.  E.  E.  E.     E.  E.  E.  E.  E.  E.  E.  E.   
----------------------------------|----------------------------------|
----------------------------------|----------------------------------|
----------------------------------|----------------------------------|
--4---4---4---4---4---4---4---4---|--6---6---6---6---6---6---6---6---|
--4---4---4---4---4---4---4---4---|--4---4---4---4---4---4---4---4---|
--2---2---2---2---2---2---2---2---|--4---4---4---4---4---4---4---4---|


  E.  E.  E.  E.  E.  E.  E.  E.     E.  E.  E.  E.  E.  E.  E.  E.   
----------------------------------|----------------------------------|
----------------------------------|----------------------------------|
----------------------------------|----------------------------------|
--6---6---6---6---6---6---6---6---|--7---7---7---7---7---7---7---7---|
--4---4---4---4---4---4---4---4---|--7---7---7---7---7---7---7---7---|
--4---4---4---4---4---4---4---4---|--5---5---5---5---5---5---5---5---|


  S. S. S. S. S. S. S. S. S. S. S. S. S. S. S. S.  
--------------------------------------------------|
--------------------------------------------------|
--------------------------------------------------|
--------------------------------------------------|
-----4--4-----4--4-----4--4-----4-----4-----4-----|
--0--2--2--0--2--2--0--2--2--0--2--0--2--0--2--0--|


  E.  E.  E.  E.  E.  E.  E.  E.     E.  E.  E.  E.  E.  E.  E.  E.   
----------------------------------|----------------------------------|
----------------------------------|----------------------------------|
----------------------------------|----------------------------------|
--6---6---6---6---6---6---6---6---|--6---6---6---6---6---6---6---6---|
--4---4---4---4---4---4---4---4---|--4---4---4---4---4---4---4---4---|
--4---4---4---4---4---4---4---4---|--4---4---4---4---4---4---4---4---|


  E.  E.  E.  E.  E.  E.  E.  E.     E.  E.  E.  E.  E.  E.  E.  E.   
----------------------------------|----------------------------------|
----------------------------------|----------------------------------|
----------------------------------|----------------------------------|
--6---6---6---6---6---6---6---6---|--6---6---6---6---6---6---6---6---|
--6---6---6---6---6---6---6---6---|--6---6---6---6---6---6---6---6---|
--4---4---4---4---4---4---4---4---|--4---4---4---4---4---4---4---4---|


  E.  E.  E.  E.  E.  E.  E.  E.     E.  E.  E.  E.  E.  E.  E.  E.   
----------------------------------|----------------------------------|
----------------------------------|----------------------------------|
----------------------------------|----------------------------------|
--6---6---6---6---6---6---6---6---|--6---6---6---6---6---6---6---6---|
--4---4---4---4---4---4---4---4---|--4---4---4---4---4---4---4---4---|
--4---4---4---4---4---4---4---4---|--4---4---4---4---4---4---4---4---|


  E.  E.  E.  E.  E.  E.  E.  E.     E.  E.  E.  E.  E.  E.  E.  E.   
----------------------------------|----------------------------------|
----------------------------------|----------------------------------|
----------------------------------|----------------------------------|
--6---6---6---6---6---6---6---6---|--6---6---6---6---6---6---6---6---|
--6---6---6---6---6---6---6---6---|--6---6---6---6---6---6---6---6---|
--4---4---4---4---4---4---4---4---|--4---4---4---4---4---4---4---4---|


  >   >   >   >   >   >   >   >            
  E.  E.  E.  E.  E.  E.  E.  E.           
----------------------------------|------||
----------------------------------|------||
----------------------------------|------||
--6---6---6---6---6---6---6---6---|------||
--4---4---4---4---4---4---4---4---|------||
--4---4---4---4---4---4---4---4---|------||









Guitar 2:

              E   E  E  E   S  S   E  E  E  E  E  E  E   
D||-------|--12-------------L-11---------------------L--|
A||-------|--15b------------L-14b~-------------------L--|
F||-------|---------------------------------------------|
C||-------|---------------------------------------------|
G||-------|---------------------------------------------|
D||-------|---------------------------------------------|


   E   E  E  E   S  S   E  E  E  E  E  E  E   
--12-------------L-11---------------------L--|
--15b------------L-14b~-------------------L--|
---------------------------------------------|
---------------------------------------------|
---------------------------------------------|
---------------------------------------------|


   E   E  E  E   S  S   E  E  E  E  E  E  E   
---------------------------------------------|
--14-------------L-12---------------------L--|
--16b------------L-14b~-------------------L--|
---------------------------------------------|
---------------------------------------------|
---------------------------------------------|


   E   E  E  E   S  S   E  E  E  E  E  E  E   
---------------------------------------------|
--11-------------L--9---------------------L--|
--13b------------L-11b~-------------------L--|
---------------------------------------------|
---------------------------------------------|
---------------------------------------------|


   E   E  E  E   S  S   E  E  E  E  E  E  E   
--12-------------L-11---------------------L--|
--15b------------L-14b~-------------------L--|
---------------------------------------------|
---------------------------------------------|
---------------------------------------------|
---------------------------------------------|


   E   E  E  E   S  S   E  E  E  E  E  E  E   
--12-------------L-11---------------------L--|
--15b------------L-14b~-------------------L--|
---------------------------------------------|
---------------------------------------------|
---------------------------------------------|
---------------------------------------------|


   E   E  E  E   S  S   E  E  E  E  E  E  E   
---------------------------------------------|
--14-------------L-12---------------------L--|
--16b------------L-14b~-------------------L--|
---------------------------------------------|
---------------------------------------------|
---------------------------------------------|


   E    E  E  E  E  E  E  E  E  E  E   E       Q     Q    Q    Q    Q    Q     
------------------------------------------|-----------------------------------|
--11-----------------------------------L--|-----------------------------------|
--13b~---------------------------------L--|--(13)------------------------L----|
------------------------------------------|-----------------------------------|
------------------------------------------|-----------------------------------|
------------------------------------------|-----------------------------------|


-----|-------|-------|-------|-------|-------|-------|-------|-------|-------|
-----|-------|-------|-------|-------|-------|-------|-------|-------|-------|
-----|-------|-------|-------|-------|-------|-------|-------|-------|-------|
-----|-------|-------|-------|-------|-------|-------|-------|-------|-------|
-----|-------|-------|-------|-------|-------|-------|-------|-------|-------|
-----|-------|-------|-------|-------|-------|-------|-------|-------|-------|


          E.  E.  E.  E.  E.  E.  E.  E.     E.  E.  E.  E.  E.  E.  E.  E.   
-------|----------------------------------|----------------------------------|
-------|----------------------------------|--4-------L-----------------------|
-------|------------------------------6---|--------------6-----------L---6---|
-------|--6---6---6---6---6---------------|----------------------------------|
-------|--6---6---6---6---6---------------|----------------------------------|
-------|--4---4---4---4---4---------------|----------------------------------|


  E.  E.  E.  E.  E.  E.  E.  E.     E.  E.  E.  E.  E.  E.  E.  E.   
----------------------------------|----------------------------------|
--4-------L-----------------------|--4-------L-----------------------|
--------------6-----------L---6---|--------------6-----------L---6---|
----------------------------------|----------------------------------|
----------------------------------|----------------------------------|
----------------------------------|----------------------------------|


  E.  E.  E.  E.  E.  E.  E.  E.     E.  E.  E.  E.  E.  E.  E.  E.   
----------------------------------|----------------------------------|
--4-------L-----------------------|--4-------L-----------------------|
--------------6-----------L---6---|--------------6-----------L---6---|
----------------------------------|----------------------------------|
----------------------------------|----------------------------------|
----------------------------------|----------------------------------|


  E.  E.  E.  E.  E.  E.  E.  E.     E.  E.  E.  E.  E.  E.  E.  E.   
----------------------------------|----------------------------------|
--4-------L-----------------------|--4-------L-----------------------|
--------------6-----------L---6---|--------------6-----------L---6---|
----------------------------------|----------------------------------|
----------------------------------|----------------------------------|
----------------------------------|----------------------------------|


  E.  E.  E.  E.  E.  E.  E.  E.   
----------------------------------|
--4-------L-----------------------|
--------------6---------------L---|
----------------------------------|
----------------------------------|
----------------------------------|


   E   E  E  E   S  S   E  E  E  E  E  E  E   
--12-------------L-11---------------------L--|
--15b------------L-14b~-------------------L--|
---------------------------------------------|
---------------------------------------------|
---------------------------------------------|
---------------------------------------------|


   E   E  E  E   S  S   E  E  E  E  E  E  E   
--12-------------L-11---------------------L--|
--15b------------L-14b~-------------------L--|
---------------------------------------------|
---------------------------------------------|
---------------------------------------------|
---------------------------------------------|


   E   E  E  E   S  S   E  E  E  E  E  E  E   
---------------------------------------------|
--14-------------L-12---------------------L--|
--16b------------L-14b~-------------------L--|
---------------------------------------------|
---------------------------------------------|
---------------------------------------------|


   E    E  E  E  E  E  E  E  E  E  E   E       Q     Q    Q    Q    Q    Q     
------------------------------------------|-----------------------------------|
--11-----------------------------------L--|-----------------------------------|
--13b~---------------------------------L--|--(13)------------------------L----|
------------------------------------------|-----------------------------------|
------------------------------------------|-----------------------------------|
------------------------------------------|-----------------------------------|


-----|-------|-------|-------|-------|-------|-------|-------|-------|-------|
-----|-------|-------|-------|-------|-------|-------|-------|-------|-------|
-----|-------|-------|-------|-------|-------|-------|-------|-------|-------|
-----|-------|-------|-------|-------|-------|-------|-------|-------|-------|
-----|-------|-------|-------|-------|-------|-------|-------|-------|-------|
-----|-------|-------|-------|-------|-------|-------|-------|-------|-------|


          E.  E.  E.  E.  E.  E.  E.  E.     E.  E.  E.  E.  E.  E.  E.  E.   
-------|----------------------------------|----------------------------------|
-------|----------------------------------|--4-------L-----------------------|
-------|------------------------------6---|--------------6-----------L---6---|
-------|--6---6---6---6---6---------------|----------------------------------|
-------|--6---6---6---6---6---------------|----------------------------------|
-------|--4---4---4---4---4---------------|----------------------------------|


  E.  E.  E.  E.  E.  E.  E.  E.     E.  E.  E.  E.  E.  E.  E.  E.   
----------------------------------|----------------------------------|
--4-------L-----------------------|--4-------L-----------------------|
--------------6-----------L---6---|--------------6-----------L---6---|
----------------------------------|----------------------------------|
----------------------------------|----------------------------------|
----------------------------------|----------------------------------|


  E.  E.  E.  E.  E.  E.  E.  E.     E.  E.  E.  E.  E.  E.  E.  E.   
----------------------------------|----------------------------------|
--4-------L-----------------------|--4-------L-----------------------|
--------------6-----------L---6---|--------------6-----------L---6---|
----------------------------------|----------------------------------|
----------------------------------|----------------------------------|
----------------------------------|----------------------------------|


  E.  E.  E.  E.  E.  E.  E.  E.     E.  E.  E.  E.  E.  E.  E.  E.   
----------------------------------|----------------------------------|
--4-------L-----------------------|--4-------L-----------------------|
--------------6-----------L---6---|--------------6---------------L---|
----------------------------------|----------------------------------|
----------------------------------|----------------------------------|
----------------------------------|----------------------------------|


  S. S. S. S. S. S. S. S. S. S. S. S. S. S. S. S.  
--------------------------------------------------|
--------------------------------------------------|
--------------------------------------------------|
--------------------------------------------------|
--7--9--9--7--9--9--7--9--9--7--9--7--9--7--9--7--|
--------------------------------------------------|


   E   E  E  E   S  S   E  E  E  E  E  E  E   
--12-------------L-11---------------------L--|
--15b------------L-14b~-------------------L--|
---------------------------------------------|
---------------------------------------------|
---------------------------------------------|
---------------------------------------------|


   E   E  E  E   S  S   E  E  E  E  E  E  E   
--12-------------L-11---------------------L--|
--15b------------L-14b~-------------------L--|
---------------------------------------------|
---------------------------------------------|
---------------------------------------------|
---------------------------------------------|


   E   E  E  E   S  S   E  E  E  E  E  E  E   
---------------------------------------------|
--14-------------L-12---------------------L--|
--16b------------L-14b~-------------------L--|
---------------------------------------------|
---------------------------------------------|
---------------------------------------------|


   E   E  E  E   S  S   E  E  E  E  E  E  E   
---------------------------------------------|
--11-------------L--9---------------------L--|
--13b------------L-11b~-------------------L--|
---------------------------------------------|
---------------------------------------------|
---------------------------------------------|


   E   E  E  E   S  S   E  E  E  E  E  E  E   
--12-------------L-11---------------------L--|
--15b------------L-14b~-------------------L--|
---------------------------------------------|
---------------------------------------------|
---------------------------------------------|
---------------------------------------------|


   E   E  E  E   S  S   E  E  E  E  E  E  E   
--12-------------L-11---------------------L--|
--15b------------L-14b~-------------------L--|
---------------------------------------------|
---------------------------------------------|
---------------------------------------------|
---------------------------------------------|


   E   E  E  E   S  S   E  E  E  E  E  E  E   
---------------------------------------------|
--14-------------L-12---------------------L--|
--16b------------L-14b~-------------------L--|
---------------------------------------------|
---------------------------------------------|
---------------------------------------------|


   E   E  E  E   S  S   E  E  E  E  E  E  E   
---------------------------------------------|
--11-------------L--9---------------------L--|
--13b------------L-11b~-------------------L--|
---------------------------------------------|
---------------------------------------------|
---------------------------------------------|


  E   E  E  E   S S   E  E  E  E  E  E  E   
-------------------------------------------|
--7-------------L-5---------------------L--|
--9b------------L-7b~-------------------L--|
-------------------------------------------|
-------------------------------------------|
-------------------------------------------|


  E   E  E  E   S S   E  E  E  E  E  E  E   
-------------------------------------------|
--4-------------L-2---------------------L--|
--6b------------L-4b~-------------------L--|
-------------------------------------------|
-------------------------------------------|
-------------------------------------------|


  E   E  E  E  S S  E  E  E  E  E  E  E     Q.     Q.     Q.     Q.      
-----------------------------------------|------------------------------|
-----------------------------------------|------------------------------|
--2b-----------L-2~----------L--1-----L--|------------------------------|
-----------------------------------------|--4---------------------------|
-----------------------------------------|------------------------------|
-----------------------------------------|------------------------------|


  E.  E.  E.  E.  E.  E.  E.  E.     E.  E.  E.  E.  E.  E.  E.  E.   
----------------------------------|----------------------------------|
----------------------------------|--4-------L-----------------------|
------------------------------6---|--------------6-----------L---6---|
--------------L-------------------|----------------------------------|
----------------------------------|----------------------------------|
----------------------------------|----------------------------------|


  E.  E.  E.  E.  E.  E.  E.  E.     E.  E.  E.  E.  E.  E.  E.  E.   
----------------------------------|----------------------------------|
--4-------L-----------------------|--4-------L-----------------------|
--------------6-----------L---6---|--------------6-----------L---6---|
----------------------------------|----------------------------------|
----------------------------------|----------------------------------|
----------------------------------|----------------------------------|


  E.  E.  E.  E.  E.  E.  E.  E.     E.  E.  E.  E.  E.  E.  E.  E.   
----------------------------------|----------------------------------|
--4-------L-----------------------|--4-------L-----------------------|
--------------6-----------L---6---|--------------6-----------L---6---|
----------------------------------|----------------------------------|
----------------------------------|----------------------------------|
----------------------------------|----------------------------------|


  E.  E.  E.  E.  E.  E.  E.  E.     E.  E.  E.  E.  E.  E.  E.  E.   
----------------------------------|----------------------------------|
--4-------L-----------------------|--4-------L-----------------------|
--------------6-----------L---6---|--------------6-----------L---6---|
----------------------------------|----------------------------------|
----------------------------------|----------------------------------|
----------------------------------|----------------------------------|


  E.  E.  E.  E.  E.  E.  E.  E.     E.  E.  E.  E.  E.  E.  E.  E.   
----------------------------------|----------------------------------|
--4-------L-----------------------|--4-------L-----------------------|
--------------6-----------L---6---|--------------6-----------L---6---|
----------------------------------|----------------------------------|
----------------------------------|----------------------------------|
----------------------------------|----------------------------------|


  E.  E.  E.  E.  E.  E.  E.  E.     E.  E.  E.  E.  E.  E.  E.  E.   
----------------------------------|----------------------------------|
--4-------L-----------------------|--4-------L-----------------------|
--------------6-----------L---6---|--------------6-----------L---6---|
----------------------------------|----------------------------------|
----------------------------------|----------------------------------|
----------------------------------|----------------------------------|


  E.  E.  E.  E.  E.  E.  E.  E.     E.  E.  E.  E.  E.  E.  E.  E.   
----------------------------------|----------------------------------|
--4-------L-----------------------|--4-------L-----------------------|
--------------6-----------L---6---|--------------6-----------L---6---|
----------------------------------|----------------------------------|
----------------------------------|----------------------------------|
----------------------------------|----------------------------------|


  E.  E.  E.  E.  E.  E.  E.  E.     E.  E.  E.  E.  E.  E.  E.  E.   
----------------------------------|----------------------------------|
--4-------L-----------------------|--4-------L-----------------------|
--------------6-----------L---6---|--------------6---------------L---|
----------------------------------|----------------------------------|
----------------------------------|----------------------------------|
----------------------------------|----------------------------------|


  S. S. S. S. S. S. S. S. S. S. S. S. S. S. S. S.  
--------------------------------------------------|
--------------------------------------------------|
--------------------------------------------------|
--------------------------------------------------|
--7--9--9--7--9--9--7--9--9--7--9--7--9--7--9--7--|
--------------------------------------------------|


   E   E  E  E   S  S   E  E  E  E  E  E  E   
--12-------------L-11---------------------L--|
--15b------------L-14b~-------------------L--|
---------------------------------------------|
---------------------------------------------|
---------------------------------------------|
---------------------------------------------|


   E   E  E  E   S  S   E  E  E  E  E  E  E   
--12-------------L-11---------------------L--|
--15b------------L-14b~-------------------L--|
---------------------------------------------|
---------------------------------------------|
---------------------------------------------|
---------------------------------------------|


   E   E  E  E   S  S   E  E  E  E  E  E  E   
---------------------------------------------|
--16-------------L-14---------------------L--|
--18b------------L-16b~-------------------L--|
---------------------------------------------|
---------------------------------------------|
---------------------------------------------|


   E   E  E  E  S S E  E  E  E  E  E  E   
-----------------------------------------|
--14----------------------------------L--|
--16b---------------------------------L--|
-----------------------------------------|
-----------------------------------------|
-----------------------------------------|


   E   E  E  E   S  S   E  E  E  E  E  E  E   
--12-------------L-11---------------------L--|
--15b------------L-14b~-------------------L--|
---------------------------------------------|
---------------------------------------------|
---------------------------------------------|
---------------------------------------------|


   E   E  E  E   S  S   E  E  E  E  E  E  E   
--12-------------L-11---------------------L--|
--15b------------L-14b~-------------------L--|
---------------------------------------------|
---------------------------------------------|
---------------------------------------------|
---------------------------------------------|


   E   E  E  E   S  S   E  E  E  E  E  E  E   
---------------------------------------------|
--16-------------L-14---------------------L--|
--18b------------L-16b~-------------------L--|
---------------------------------------------|
---------------------------------------------|
---------------------------------------------|


   E   E  E  E  S S E  E  E  E  E  E  E   
-----------------------------------------|
--14----------------------------------L--|
--16b---------------------------------L--|
-----------------------------------------|
-----------------------------------------|
-----------------------------------------|


                    >                                
   E   E  E  E   S  S   E  E  E  E  E  E  E          
--12-------------L-11---------------------L--|-----||
--15b------------L-14b~-------------------L--|-----||
---------------------------------------------|-----||
---------------------------------------------|-----||
---------------------------------------------|-----||
---------------------------------------------|-----||



Duration Legend
---------------
W - whole
H - half
Q - quarter
E - 8th
S - 16th
T - 32nd
X - 64th
. - note dotted
|-n-|  - n-tuplets


Tablature Legend
----------------
L - tied note
x - dead note
g - grace note
(n) - ghost note
> - accentuded note
NH - natural harmonic
AH - artificial harmonic
TH - tapped harmonic
SH - semi harmonic
PH - pitch harmonic
h - hammer on
p - pull off
b - bend
br - bendRelease
pb - preBend
pbr - preBendRelease
brb - bendReleaseBend
\n/ - tremolo bar dip
\n - tremolo bar dive
-/n - tremolo bar Release up
/n\ - tremolo bar inverted dip
/n - tremolo bar return
-\n - tremolo bar Release down
S - shift slide
s - legato slide
/ -  slide into from below or out of upwards
\ -  slide into from above or out of downwards
~ - vibrato
W - wide vibrato
tr - trill
TP - tremolo picking
T - tapping
S - slap
P - pop
< - fade in
^ - brush up
v - brush down

            
            
Suggest correction
Creating personal tab
Creating personal tab
You can edit any tab online and save it as your Personal.

You can edit, replace or remove any tab part or add personal notes – all changes will be seen only by you.

Personal tabs can be accessed anytime from any device, even offline.
Learn more »
Give kudos to tab author, rate the tab!
1 2 3 4 5
comments
print report bad tab
guest
Wanna post a correction for this tab? Suggest correction