Oops, an error
Loading. Please wait.

Well Burn The Sky tab

version 1
version 1

Whole song

Interactive

16,837 views 6 this week
2 commentsread comments
1 2 3 4 5
x 3
add to favorites
×
Save as Personal and add changes to this tab that will be seen only by you. Learn more ›
×
You can save this tab as Personal to edit and correct it or add notes. All changes will be seen only by you. Learn more »
launch autoscroll
font size
0
reset
how to read this tab
guitar tuner
edit
Autoscroll
slow
fast
+/-
esc
set tempo
stop
Author
Difficulty
Unregistered
intermediate
Intro/ Versos
E|-----------------------------------------------------|
B|-----9-----------12-----------5------------4---------|
G|-------9-----------11-----------4------------3-------|
D|--6------6----9------9----2--------2----1-------1----|
A|-----------------------------------------------------|
E|-----------------------------------------------------|
                                                   
E|------------------------------------------------------|
B|-----9----------12-------------5-----------7----------|
G|-------8-----------11------------4-----------6--------|
D|--6------6----9--------9----2------2----4------4------|
A|------------------------------------------------------|
E|------------------------------------------------------|

I'm in love with the sunshine,
I'm in love with the falling rain,
Everything seems to call your name..
Yesterday you were leaving,
Leaving life and all the pain,
Everything..

"Wants you back again..."
E|---------------------------------------------------|
B|----9------------12-------------5-----------7------|
G|-------8------------11------------4-----------6----|
D|--6------6----9--------9----2-------2----4---------|
A|---------------------------------------------------|
E|---------------------------------------------------|


Refrão
E|-------------------------------------------------|
B|-------------------------------------------------|
G|-------------------------------------------------|
D|--6--6--6--6-6---6--6--6-4----4-4--4-4-----------|
A|--6--6--6--6-6---6--6--6-4----4-4--4-4-----------|
E|--4--4--4--4-4---4--4--4-2----2-2--2-2-----------|

I've found myself through you,
And there was love in my life,
I felt always naturally high 
And my love had a home,
But now my mind has started to roam..
You're my life giving fire 
And you carried all my love
Through you I was so inspired
You're engraved deep in my..

"Heart..."
E|---------------|
B|---------------|
G|------1---3----|
D|--6---2---4----|
A|--6---2---4----|
E|--4---0---2----| 


Versos
E|-----------------------------------------------------|
B|-----9-----------12-----------5------------4---------|
G|-------9-----------11-----------4------------3-------|
D|--6------6----9------9----2--------2----1-------1----|
A|-----------------------------------------------------|
E|-----------------------------------------------------|
                                                   
E|------------------------------------------------------|
B|-----9----------12-------------5-----------7----------|
G|-------8-----------11------------4-----------6--------|
D|--6------6----9--------9----2------2----4------4------|
A|------------------------------------------------------|
E|------------------------------------------------------|

My dreams recall us being one
I've searched for you to be free
My force of life you have always been
I Feel blue since you've gone
Your breath of love surrounded me
When can I...

"Rejoin you to be free..."
E|---------------------------------------------------|
B|----9------------12-------------5-----------7------|
G|-------8------------11------------4-----------6----|
D|--6------6----9--------9----2-------2----4---------|
A|---------------------------------------------------|
E|---------------------------------------------------|


Refrão
E|-------------------------------------------------|
B|-------------------------------------------------|
G|-------------------------------------------------|
D|--6--6--6--6-6---6--6--6-4----4-4--4-4-----------|
A|--6--6--6--6-6---6--6--6-4----4-4--4-4-----------|
E|--4--4--4--4-4---4--4--4-2----2-2--2-2-----------|

Wait, can this be a dream
There is a voice in my head
It belongs to you, it say's
Don't cry, no need to be sad
There's a way to stay with you again
It's more than we ever had
And no death brings us apart
Our timeless love always grows
Because you are my other..

"Heart..."
E|---------------|
B|---------------|
G|------1---3----|
D|--6---2---4----|
A|--6---2---4----|
E|--4---0---2----| 

                   G#
I know we've never been apart
                    F#
Your love sets fire to my heart
               G#
We'll burn the sky
          F#
When it's time for me to..

"Die.. We'll burn the sky..." (Final)
E|-------------------------------------------------|
B|-------------------------------------------------|
G|-------------------------------------------------|
D|--6--6--6--6-6---6--6--6-4----4-4--4-4-----------|
A|--6--6--6--6-6---6--6--6-4----4-4--4-4-----------|
E|--4--4--4--4-4---4--4--4-2----2-2--2-2-----------|

---------------------
Thanks to JLS Org.© 2015 to chordify the song.

            
            
Suggest correction
Creating personal tab
Creating personal tab
You can edit any tab online and save it as your Personal.

You can edit, replace or remove any tab part or add personal notes – all changes will be seen only by you.

Personal tabs can be accessed anytime from any device, even offline.
Learn more »
Give kudos to tab author, rate the tab!
1 2 3 4 5
comments
print report bad tab
2 comments total.
+2 reply
dimitrisaleh1 10 May 02, 2016 04:56 AM

in the first it should be ;

---------
---9-----
-----8---
-6-----6-
---------
---------

not

--------------
---9-----------
-----9---------
-6-----9--------
--------------
--------------

0 reply
kris123rz 10 Aug 05, 2017 10:01 AM, edited at 02:05 pm

I recommend to tune your D string half down to C# and then..
e---------- e------------------
B----9----- B------------------
G------8--- and G------------------
C#-7-----7- C#-7-7-7-7--7-7-7-5-
A---------- A-6-6-6-6--6-6-6-4-
E---------- E-4-4-4-4--4-4-4-2- I also saw that Rudolf Schenker doing on ref. something like.

C#-7-7-7-7----7-7-7-5
A-6-6-6-6/7--6-6-6-4
E-4-4-4-4----4-4-4-2 So you can try ;D

guest
Wanna post a correction for this tab? Suggest correction