Oops, an error
Loading. Please wait.

Well To The Bone Tab

3,430 views 1 this week
no commentswrite comment
1 2 3 4 5
please rate
add to favorites
launch autoscroll
font size
0
reset
how to read this tab
guitar tuner
Tab Pro tools
  • play this tab
  • loop segment
  • change instrument
  • show fretboard
  • metronome
×
Best way to learn
"Well To The Bone"
Autoscroll
slow
fast
+/-
esc
set tempo
stop
Difficulty
advanced
-------------------------------------------------------------------------------
                             Well to the Bone - Scott Henderson
-------------------------------------------------------------------------------
Tabbed by:Matt Peters   
Email:matthewpeters1@yahoo.com

Tuning:standard

Listen to the track to get the pace of this tricky tune. Good luck. 

Intro
e|---3-3----3-3---3-3^--0-0--------------------------------------------------|
B|---3-3----3-3---2-2^---3--0------------------------------------3-/-5-------|
G|---0-0----0-0---------------2^-2^-2^-2^p0----------------------4-/-6-------|
D|---0-0----0-0----------------------------2---------------------------------|
A|-1-1-1--3-3-3------------------------------0h1p0--0---5--------------------|
E|------------------------------------------------3--3----0-0-0--------------|

e|-----------------------------------5b7-5b7-5b7b5p0-33-0-3-0----------------|
B|-\-3--5/6\5\3-5-5\3-3------------------------------22-0-2-0----------------|
G|-\-4--6/7\6\4-6-6\4-4------------------------------------------------------|
D|---------------------------------------------------------------------------|
A|----------------------5-0-5---------------------------------/5-------------|
E|----------------------------0-0-0------------------------------0-0-0-------|

e|-3-------3---3-------------------------------------------------------------|
B|-3--3----3---3-------------------------------------------------------------|
G|-0--2----0---0-------------------------------------------------------------|
D|-0--0----0---0-------------------------------------------------------------|
A|-0------11--33---5p0h5-----------------------------------------------------|
E|-3---------------------0-0-0-----------------------------------------------|

verses
e|------------------------------------------------------------3-------3---3--|
B|-------------------------------------------------3----------3--3----3---3--|
G|-------0----0-2p0------------------0-----0--2p0--2----------0--2----0---0--|
D|----4---4--4------4--------------4--4---4-------------------0--0----0---0--|
A|-3/5------3-------3-----------3/5------3--------------------0------11--33--|
E|---------------------0-0-0-0-----------------------0-0-0-0--3--------------|

Chorus
e|---------------------------------------------------------------------------|
B|----3--3---3--3---1--1---1--1------------------------------------0---------|
G|---0--0---0--0---0--0---0--0------0---0-----------------------2---2-2------|
D|--5------4------3------2---------4---4--------0----------------1---1-------|
A|-------------------------------/5---3----------2-0h1p0--0----2--2----------|
E|---------------------------------------0-0-3^---------3--3-----------------|

e|----33-0-33-0-------3--7b-3---3-----3---3----------------------------------|
B|----22-0-22-0------3-3-----3--3-3---3---3----------------------------------|
G|---------------5b7----------0-0-2---0---0----------------------------------|
D|------------------------------0-0---0---0----------------------------------|
A|-0----------------------------0----11--22----------------------------------|
E|------------------------------3--------------------------------------------|

e|---------------------------------------------------------------------------|
B|---------------------------------------------------------------------------|
G|---------------------------------------------------------------------------|
D|---------------------------------------------------------------------------|
A|---------------------------------------------------------------------------|
E|---------------------------------------------------------------------------|

e|---------------------------------------------------------------------------|
B|---------------------------------------------------------------------------|
G|---------------------------------------------------------------------------|
D|---------------------------------------------------------------------------|
A|---------------------------------------------------------------------------|
E|---------------------------------------------------------------------------|


| /  slide up
| \  slide down
| h  hammer-on
| p  pull-off
| ~  vibrato
| +  harmonic
| x  Mute note
comments
We did not receive enough feedback on this tab! Please rate:
print report bad tab
1 2 3 4 5
I want to post or [tab]
guest
You may want to rate the tab now too:
select rating
Please do not post tabs as comments. Select "correction" instead!