Oops, an error
Loading. Please wait.

The Entertainer Tab

version 1
113,721 views 117 this week
5 commentsread comments
1 2 3 4 5
x 21
add to favorites
launch autoscroll
font size
0
reset
how to read this tab
guitar tuner
Autoscroll
slow
fast
+/-
esc
set tempo
stop
Help us to improve Ultimate-Guitar.com Take our survey!
×
#----------------------------------PLEASE NOTE--------------------------------#
#This file is the author's own work and represents their interpretation of the#
#song. You may only use this file for private study, scholarship, or research.#
#-----------------------------------------------------------------------------#

Date: Fri, 20 Mar 1998 10:55:50 -0800
From: Edwin Tan 
Subject: TAB: the entertainer by scott joplin

TAB FOR: The Entertainer
Written by : Scott Joplin
Transcribed by Edwin Tan (stoned@pacific.net.sg)

As this is a direct transcription I made from the piano, so there will
be 2 guitar part as played using the left right hand on the piano.
Guitar 1 will be played as the right hand side while guitar 2 will be
played as the left hand side. As for the timing try to catch it yourself
and if u face any problems, feel free to contact me and I'll try my best
to help.. Bye !

Enjoy!

Guitar 1

4/4 ( Lively )
e|--------8---8---8|--8-10\11-12-8-10-12----10-8|
B|-----------------|---------------------12-----|
G|--7h8h9---9---9--|----------------------------|
D|-----------------|----------------------------|
A|-----------------|----------------------------|
E|-----------------|----------------------------|

e|--------8---8---8|------------8-12-10-8-------|
B|-----------------|--10-8p7-10-----------12----|
G|--7h8h9---9---9--|----------------------------|
D|-----------------|----------------------------|
A|-----------------|----------------------------|
E|-----------------|----------------------------|

e|--------8---8---8|--8-10\11-12-8-10-12----10-8|
B|-----------------|---------------------12-----|
G|--7h8h9---9---9--|----------------------------|
D|-----------------|----------------------------|
A|-----------------|----------------------------|
E|-----------------|----------------------------|

e|--8-10\11-12-8-10-12-8-10-8-12-8-10-12-8-10-8-12-8-10-12----10-8-|
B|---------------------------------------------------------12------|
G|-----------------------------------------------------------------|
D|-----------------------------------------------------------------|
A|-----------------------------------------------------------------|
E|-----------------------------------------------------------------|

e|------------------------------12----------------10---------------|
B|-------7h8-10p8------7h8-10p8----13----10p12-13----13-10---------|
G|--9h10----------9h10----------------12-------------------12------|
D|-----------------------------------------------------------------|
A|-----------------------------------------------------------------|
E|-----------------------------------------------------------------|

e|-----------------------------------------------------------------|
B|-------7h8-10p8------7h8-10p8-8h10-11-12-12-12-10------8---------|
G|--9h10----------9h10------------------------------11\7---10-9----|
D|-----------------------------------------------------------------|
A|-----------------------------------------------------------------|
E|-----------------------------------------------------------------|

e|------------------------------12----------------10-12-10----10---|
B|-------7h8-10p8------7h8-10p8----13----10p12-13----------13----13|
G|--9h10----------9h10----------------12---------------------------|
D|-----------------------------------------------------------------|
A|-----------------------------------------------------------------|
E|-----------------------------------------------------------------|

e|-----------------------------------12-15-12-------------10-10---|
B|-----------13-10-13-10-13-10----13----------13----10-13-------13|
G|--12p11h12-------------------12----------------12---------------|
D|----------------------------------------------------------------|
A|----------------------------------------------------------------|
E|----------------------------------------------------------------|


Guitar 2

e|--------------------0---1-0----|---------------------------------|
B|----1---1---1---1---1---1-1----|----1---1---1--------------------|
G|----0-0-3---2---0-0---0-----0-0|----0-0-3---2-------5------------|
D|----------3---2----------------|----------3---2-1-0-4---4-5\-----|
A|--3----------------------------|--3-------------------5-------0-2|
E|-------------------------------|----------------------------3----|

e|--------------------0---1-0----|----0---0---1---1---0---1-0------|
B|----1---1---1---1---1---1-1----|--1---------1---1---1---0-1------|
G|----0-0-3---2---0-0---0-----0-0|------3---2---1---0---0-----0-0--|
D|----------3---2----------------|---------------------------------|
A|--3----------------------------|---------------------------------|
E|-------------------------------|---------------------------------|

e|-------------------------|---------------------------------------|
B|------------------1-1-1--|---------------------------------------|
G|----0---0---0---0-2-1-0-0|----0---0---0---0-------5--------------|
D|----2---2---2---2-3-3-2-0|----2---2---2---2-2-1-0-4---4-5\3-2-0--|
A|--3-------3--------------|--3-------3---------------5------------|
E|------3-------3---------3|------3-------3------------------------|

e|------------------------------------------------------0-|
B|------------------1-1-1---------4-4-5-5-5-5-----------1-|
G|----0---0---0---0-2-1-0---3-2-2-------------5-5-4-4-5-0-|
D|----2---2---2---2-3-3-2-0-2-3-3-4-4-5-5-5-5-5-5-5-5-5-2-|
A|--3-------3-------------------------------------------3-|
E|------3-------3---------------------------------------3-|


************************************

| h  Hammer-on
| p  Pull-off
| \  Slide down

************************************
Suggest correction
comments
print report bad tab
5 comments total. Showing first comments.
0 reply
pedrogwapo 10 Aug 24, 2006 07:37 AM

nice yo!!

0 reply
swhlye 10 Nov 27, 2006 05:51 PM

Great tab. However, you forgot the first few bars at the very beginning and I think you're missing the very last note in your fourth bar (should be a 12 on the e string). Otherwise, great job. I love this song.

0 reply
ice-cold 10 Dec 17, 2007 01:23 AM

not 100% acurate and some parts are missing, but still a good tab

guest
You may want to rate the tab now too:
select rating
Wanna post a correction for this tab? Suggest correction