Oops, an error
Loading. Please wait.

Slow Down chords

70 views 3 this week
no commentswrite comment
1 2 3 4 5
2 more votes to show rating
add to favorites
×
Save as Personal and add changes to this tab that will be seen only by you. Learn more ›
×
You can save this tab as Personal to edit and correct it or add notes. All changes will be seen only by you. Learn more »
launch autoscroll
font size
0
reset
transpose
0
reset
simplify chords
display chords
guitar tuner
edit
Autoscroll
slow
fast
+/-
esc
set tempo
stop
Strumming
There is no strumming pattern for this song yet. and get +5 IQ
Great finger picking, beautiful song.
I tried writing down the lyrics myself, sorry if there is anything wrong.

Tuning: Drop-D
Capo 1st Fret


Verse:
    G                   B/G                 Em                F#  
E------------------------------------------------------------------------------
B-----------0--------------------0-------------------0-----------------0-------
G-----0--------------------0-------------------0-----------------0-------------
D--------0------x4------------0------x4-----------0-----x4----------0-----x4---
A-----------------------2------------------------------------------------------
D---5---------------------------------------2-----------------4----------------


Chorus:
     G                  B/G                  Am                D
E-------------------------------------------------------------------------------
B-----------0--------------------0-------------------1--------------------------
G-----0--------------------0-------------------2-----------------------2--------
D--------0------x4------------0------x4-----------2-----x4-------5---------x4---
A-----------------------2--------------------0----------------------5-----------
D---5---------------------------------------------------------0-----------------


G    B/G    Em    F#
G    B/G    Em    F#


G                B/G   Em            F# 
  Where are you going     happen too fast?
G              B/G     Em              F#
   I'll always follow,    nothing will last


G    B/G    Em    F#


G                B/G    Em             F#
   Golden the sunlight,    golden your hair
G                B/G    Em       F#
   Where are you going?    Go anywhere


G    B/G   Am   D
Slow down, slow down
G    B/G   Am   D
Slow down, slow down


G    B/G    Em    F#


G                 B/G    Em             F#
   Go down to the water,    what do you see?
G                   B/G    Em              F#
   Caught in the sunlight,    half of it's me


G    B/G   Am   D
Slow down, slow down
G    B/G   Am   D
Slow down, slow down


G    B/G    Em    F#
G    B/G    Em    F#


G    B/G   Am   D
Slow down, slow down
G    B/G   Am   D
Slow down, slow down

G    B/G   Am   D
Slow down, slow down
G    B/G   Am   D
Slow down, slow down


backing vocals sing the following:
I've got all day, it's a long life
Why don't you slow down?


            
            
Suggest correction
Creating personal tab
Creating personal tab
You can edit any tab online and save it as your Personal.

You can edit, replace or remove any tab part or add personal notes – all changes will be seen only by you.

Personal tabs can be accessed anytime from any device, even offline.
Learn more »
Give kudos to tab author, rate the tab!
1 2 3 4 5
comments
print report bad tab
guest
You may want to rate the tab now too:
select rating
Wanna post a correction for this tab? Suggest correction