Oops, an error
Loading. Please wait.

Slow Down tab

4 views 3 this week
no commentswrite comment
1 2 3 4 5
2 more votes to show rating
add to favorites
×
Save as Personal and add changes to this tab that will be seen only by you. Learn more ›
×
You can save this tab as Personal to edit and correct it or add notes. All changes will be seen only by you. Learn more »
launch autoscroll
font size
0
reset
how to read this tab
guitar tuner
edit
Autoscroll
slow
fast
+/-
esc
set tempo
stop
Scott Orr – Slow Down


Capo on 1

INTRO (x2):
e|---------------------------------|---------------------------------|
A|-------0-------0-------0-------0-|-------0-------0-------0-------0-|
D|---0-------0-------0-------0-----|---0-------0-------0-------0-----|
G|-----0—------0-------0-------0---|-----0-------0-------0-------0---|
B|---------------------------------|-2-------2-------2-------2-------|
E|-3-------3-------3-------3-------|---------------------------------|


e|---------------------------------|---------------------------------|
A|-------0-------0-------0-------0-|-------0-------0-------0-------0-|
D|---0-------0-------0-------0-----|---0-------0-------0-------0-----|
G|-----0—------0-------0-------0---|-----0-------0-------0-------0---|
B|---------------------------------|---------------------------------|
E|-0-------0-------0-------0-------|-2-------2-------2-------2-------|  

e|---------------------------------|---------------------------------|
A|-------0-------0-------0-------0-|-------0-------0-------0-------0-|
D|---0-------0-------0-------0-----|---0-------0-------0-------0-----|
G|-----0—------0-------0-------0---|-----0-------0-------0-------0---|
B|---------------------------------|-2-------2-------2-------2-------|
E|-3-------3-------3-------3-------|---------------------------------|


e|---------------------------------|---------------------------------|
A|-------0-------0-------0-------0-|-------0-------0-------0-------0-|
D|---0-------0-------0-------0-----|---0-------0-------0-------0-----|
G|-----0—------0-------0-------0---|-----0-------0-------0-------0---|
B|---------------------------------|---------------------------------|
E|-0-------0-------0-------0-------|-2-------2-------2-------2-------|


VERSE (Same as intro):
e|---------------------------------|---------------------------------|
A|-------0-------0-------0-------0-|-------0-------0-------0-------0-|
D|---0-------0-------0-------0-----|---0-------0-------0-------0-----|
G|-----0—------0-------0-------0---|-----0-------0-------0-------0---|
B|---------------------------------|-2-------2-------2-------2-------|
E|-3-------3-------3-------3-------|---------------------------------|

                   Where are you     going?

e|---------------------------------|---------------------------------|
A|-------0-------0-------0-------0-|-------0-------0-------0-------0-|
D|---0-------0-------0-------0-----|---0-------0-------0-------0-----|
G|-----0—------0-------0-------0---|-----0-------0-------0-------0---|
B|---------------------------------|---------------------------------|
E|-0-------0-------0-------0-------|-2-------2-------2-------2-------|  

                   Movin’    too     fast

e|---------------------------------|---------------------------------|
A|-------0-------0-------0-------0-|-------0-------0-------0-------0-|
D|---0-------0-------0-------0-----|---0-------0-------0-------0-----|
G|-----0—------0-------0-------0---|-----0-------0-------0-------0---|
B|---------------------------------|-2-------2-------2-------2-------|
E|-3-------3-------3-------3-------|---------------------------------|

                   I’ll    always    follow

e|---------------------------------|---------------------------------|
A|-------0-------0-------0-------0-|-------0-------0-------0-------0-|
D|---0-------0-------0-------0-----|---0-------0-------0-------0-----|
G|-----0—------0-------0-------0---|-----0-------0-------0-------0---|
B|---------------------------------|---------------------------------|
E|-0-------0-------0-------0-------|-2-------2-------2-------2-------|  

                   Nothing    will   last


INTRO (x1)
e|---------------------------------|---------------------------------|
A|-------0-------0-------0-------0-|-------0-------0-------0-------0-|
D|---0-------0-------0-------0-----|---0-------0-------0-------0-----|
G|-----0—------0-------0-------0---|-----0-------0-------0-------0---|
B|---------------------------------|-2-------2-------2-------2-------|
E|-3-------3-------3-------3-------|---------------------------------|


e|---------------------------------|---------------------------------|
A|-------0-------0-------0-------0-|-------0-------0-------0-------0-|
D|---0-------0-------0-------0-----|---0-------0-------0-------0-----|
G|-----0—------0-------0-------0---|-----0-------0-------0-------0---|
B|---------------------------------|---------------------------------|
E|-0-------0-------0-------0-------|-2-------2-------2-------2-------|


VERSE:
e|---------------------------------|---------------------------------|
A|-------0-------0-------0-------0-|-------0-------0-------0-------0-|
D|---0-------0-------0-------0-----|---0-------0-------0-------0-----|
G|-----0—------0-------0-------0---|-----0-------0-------0-------0---|
B|---------------------------------|-2-------2-------2-------2-------|
E|-3-------3-------3-------3-------|---------------------------------|

                   Gold in the       sunlight,

e|---------------------------------|---------------------------------|
A|-------0-------0-------0-------0-|-------0-------0-------0-------0-|
D|---0-------0-------0-------0-----|---0-------0-------0-------0-----|
G|-----0—------0-------0-------0---|-----0-------0-------0-------0---|
B|---------------------------------|---------------------------------|
E|-0-------0-------0-------0-------|-2-------2-------2-------2-------|  

                  Gold   in  your    hair

e|---------------------------------|---------------------------------|
A|-------0-------0-------0-------0-|-------0-------0-------0-------0-|
D|---0-------0-------0-------0-----|---0-------0-------0-------0-----|
G|-----0—------0-------0-------0---|-----0-------0-------0-------0---|
B|---------------------------------|-2-------2-------2-------2-------|
E|-3-------3-------3-------3-------|---------------------------------|

                   Where are you     going?

e|---------------------------------|---------------------------------|
A|-------0-------0-------0-------0-|-------0-------0-------0-------0-|
D|---0-------0-------0-------0-----|---0-------0-------0-------0-----|
G|-----0—------0-------0-------0---|-----0-------0-------0-------0---|
B|---------------------------------|---------------------------------|
E|-0-------0-------0-------0-------|-2-------2-------2-------2-------|  

                   Go                anywhere

CHORUS:
e|---------------------------------|---------------------------------|
A|-------0-------0-------0-------0-|-------0-------0-------0-------0-|
D|---0-------0-------0-------0-----|---0-------0-------0-------0-----|
G|-----0—------0-------0-------0---|-----0-------0-------0-------0---|
B|---------------------------------|-2-------2-------2-------2-------|
E|-3-------3-------3-------3-------|---------------------------------|

   Slow                              down

e|---------------------------------|---------------------------------|
A|-------1-------1-------1-------1-|-------3-------3-------3-------3-|
D|---2-------2-------2-------2-----|---2-------2-------2-------2-----|
G|-----2—------2-------2-------2---|-----0-------0-------0-------0---|
B|-0-------0-------0-------0-------|-0-------0-------0-------0-------|
E|---------------------------------|---------------------------------|

   Slow                              down

e|---------------------------------|---------------------------------|
A|-------0-------0-------0-------0-|-------0-------0-------0-------0-|
D|---0-------0-------0-------0-----|---0-------0-------0-------0-----|
G|-----0—------0-------0-------0---|-----0-------0-------0-------0---|
B|---------------------------------|-2-------2-------2-------2-------|
E|-3-------3-------3-------3-------|---------------------------------|

   Slow                              down

e|---------------------------------|---------------------------------|
A|-------1-------1-------1-------1-|-------3-------3-------3-------3-|
D|---2-------2-------2-------2-----|---2-------2-------2-------2-----|
G|-----2—------2-------2-------2---|-----0-------0-------0-------0---|
B|-0-------0-------0-------0-------|-0-------0-------0-------0-------|
E|---------------------------------|---------------------------------|

   Slow                              down


INTRO (x1)
e|---------------------------------|---------------------------------|
A|-------0-------0-------0-------0-|-------0-------0-------0-------0-|
D|---0-------0-------0-------0-----|---0-------0-------0-------0-----|
G|-----0—------0-------0-------0---|-----0-------0-------0-------0---|
B|---------------------------------|-2-------2-------2-------2-------|
E|-3-------3-------3-------3-------|---------------------------------|


e|---------------------------------|---------------------------------|
A|-------0-------0-------0-------0-|-------0-------0-------0-------0-|
D|---0-------0-------0-------0-----|---0-------0-------0-------0-----|
G|-----0—------0-------0-------0---|-----0-------0-------0-------0---|
B|---------------------------------|---------------------------------|
E|-0-------0-------0-------0-------|-2-------2-------2-------2-------|


VERSE:
e|---------------------------------|---------------------------------|
A|-------0-------0-------0-------0-|-------0-------0-------0-------0-|
D|---0-------0-------0-------0-----|---0-------0-------0-------0-----|
G|-----0—------0-------0-------0---|-----0-------0-------0-------0---|
B|---------------------------------|-2-------2-------2-------2-------|
E|-3-------3-------3-------3-------|---------------------------------|

                   Go  down   to the water

e|---------------------------------|---------------------------------|
A|-------0-------0-------0-------0-|-------0-------0-------0-------0-|
D|---0-------0-------0-------0-----|---0-------0-------0-------0-----|
G|-----0—------0-------0-------0---|-----0-------0-------0-------0---|
B|---------------------------------|---------------------------------|
E|-0-------0-------0-------0-------|-2-------2-------2-------2-------|  

                  What     do   you  see

e|---------------------------------|---------------------------------|
A|-------0-------0-------0-------0-|-------0-------0-------0-------0-|
D|---0-------0-------0-------0-----|---0-------0-------0-------0-----|
G|-----0—------0-------0-------0---|-----0-------0-------0-------0---|
B|---------------------------------|-2-------2-------2-------2-------|
E|-3-------3-------3-------3-------|---------------------------------|

                   Caught in the    sunlight

e|---------------------------------|---------------------------------|
A|-------0-------0-------0-------0-|-------0-------0-------0-------0-|
D|---0-------0-------0-------0-----|---0-------0-------0-------0-----|
G|-----0—------0-------0-------0---|-----0-------0-------0-------0---|
B|---------------------------------|---------------------------------|
E|-0-------0-------0-------0-------|-2-------2-------2-------2-------|  

                   Half   of   it's  me


CHORUS:
e|---------------------------------|---------------------------------|
A|-------0-------0-------0-------0-|-------0-------0-------0-------0-|
D|---0-------0-------0-------0-----|---0-------0-------0-------0-----|
G|-----0—------0-------0-------0---|-----0-------0-------0-------0---|
B|---------------------------------|-2-------2-------2-------2-------|
E|-3-------3-------3-------3-------|---------------------------------|

   Slow                              down

e|---------------------------------|---------------------------------|
A|-------1-------1-------1-------1-|-------3-------3-------3-------3-|
D|---2-------2-------2-------2-----|---2-------2-------2-------2-----|
G|-----2—------2-------2-------2---|-----0-------0-------0-------0---|
B|-0-------0-------0-------0-------|-0-------0-------0-------0-------|
E|---------------------------------|---------------------------------|

   Slow                              down

e|---------------------------------|---------------------------------|
A|-------0-------0-------0-------0-|-------0-------0-------0-------0-|
D|---0-------0-------0-------0-----|---0-------0-------0-------0-----|
G|-----0—------0-------0-------0---|-----0-------0-------0-------0---|
B|---------------------------------|-2-------2-------2-------2-------|
E|-3-------3-------3-------3-------|---------------------------------|

   Slow                              down

e|---------------------------------|---------------------------------|
A|-------1-------1-------1-------1-|-------3-------3-------3-------3-|
D|---2-------2-------2-------2-----|---2-------2-------2-------2-----|
G|-----2—------2-------2-------2---|-----0-------0-------0-------0---|
B|-0-------0-------0-------0-------|-0-------0-------0-------0-------|
E|---------------------------------|---------------------------------|

   Slow                              down


INTRO (x2 with piano)
e|---------------------------------|---------------------------------|
A|-------0-------0-------0-------0-|-------0-------0-------0-------0-|
D|---0-------0-------0-------0-----|---0-------0-------0-------0-----|
G|-----0—------0-------0-------0---|-----0-------0-------0-------0---|
B|---------------------------------|-2-------2-------2-------2-------|
E|-3-------3-------3-------3-------|---------------------------------|


e|---------------------------------|---------------------------------|
A|-------0-------0-------0-------0-|-------0-------0-------0-------0-|
D|---0-------0-------0-------0-----|---0-------0-------0-------0-----|
G|-----0—------0-------0-------0---|-----0-------0-------0-------0---|
B|---------------------------------|---------------------------------|
E|-0-------0-------0-------0-------|-2-------2-------2-------2-------|

e|---------------------------------|---------------------------------|
A|-------0-------0-------0-------0-|-------0-------0-------0-------0-|
D|---0-------0-------0-------0-----|---0-------0-------0-------0-----|
G|-----0—------0-------0-------0---|-----0-------0-------0-------0---|
B|---------------------------------|-2-------2-------2-------2-------|
E|-3-------3-------3-------3-------|---------------------------------|


e|---------------------------------|---------------------------------|
A|-------0-------0-------0-------0-|-------0-------0-------0-------0-|
D|---0-------0-------0-------0-----|---0-------0-------0-------0-----|
G|-----0—------0-------0-------0---|-----0-------0-------0-------0---|
B|---------------------------------|---------------------------------|
E|-0-------0-------0-------0-------|-2-------2-------2-------2-------|


CHORUS (x2):
e|---------------------------------|---------------------------------|
A|-------0-------0-------0-------0-|-------0-------0-------0-------0-|
D|---0-------0-------0-------0-----|---0-------0-------0-------0-----|
G|-----0—------0-------0-------0---|-----0-------0-------0-------0---|
B|---------------------------------|-2-------2-------2-------2-------|
E|-3-------3-------3-------3-------|---------------------------------|

   Slow                              down

e|---------------------------------|---------------------------------|
A|-------1-------1-------1-------1-|-------3-------3-------3-------3-|
D|---2-------2-------2-------2-----|---2-------2-------2-------2-----|
G|-----2—------2-------2-------2---|-----0-------0-------0-------0---|
B|-0-------0-------0-------0-------|-0-------0-------0-------0-------|
E|---------------------------------|---------------------------------|

   Slow                              down

e|---------------------------------|---------------------------------|
A|-------0-------0-------0-------0-|-------0-------0-------0-------0-|
D|---0-------0-------0-------0-----|---0-------0-------0-------0-----|
G|-----0—------0-------0-------0---|-----0-------0-------0-------0---|
B|---------------------------------|-2-------2-------2-------2-------|
E|-3-------3-------3-------3-------|---------------------------------|

   Slow                              down

e|---------------------------------|---------------------------------|
A|-------1-------1-------1-------1-|-------3-------3-------3-------3-|
D|---2-------2-------2-------2-----|---2-------2-------2-------2-----|
G|-----2—------2-------2-------2---|-----0-------0-------0-------0---|
B|-0-------0-------0-------0-------|-0-------0-------0-------0-------|
E|---------------------------------|---------------------------------|

   Slow                              down

e|---------------------------------|---------------------------------|
A|-------0-------0-------0-------0-|-------0-------0-------0-------0-|
D|---0-------0-------0-------0-----|---0-------0-------0-------0-----|
G|-----0—------0-------0-------0---|-----0-------0-------0-------0---|
B|---------------------------------|-2-------2-------2-------2-------|
E|-3-------3-------3-------3-------|---------------------------------|

   Slow                              down

e|---------------------------------|---------------------------------|
A|-------1-------1-------1-------1-|-------3-------3-------3-------3-|
D|---2-------2-------2-------2-----|---2-------2-------2-------2-----|
G|-----2—------2-------2-------2---|-----0-------0-------0-------0---|
B|-0-------0-------0-------0-------|-0-------0-------0-------0-------|
E|---------------------------------|---------------------------------|

   Slow                              down

e|---------------------------------|---------------------------------|
A|-------0-------0-------0-------0-|-------0-------0-------0-------0-|
D|---0-------0-------0-------0-----|---0-------0-------0-------0-----|
G|-----0—------0-------0-------0---|-----0-------0-------0-------0---|
B|---------------------------------|-2-------2-------2-------2-------|
E|-3-------3-------3-------3-------|---------------------------------|

   Slow                              down

e|---------------------------------|---------------------------------|
A|-------1-------1-------1-------1-|-------3-------3-------3-------3-|
D|---2-------2-------2-------2-----|---2-------2-------2-------2-----|
G|-----2—------2-------2-------2---|-----0-------0-------0-------0---|
B|-0-------0-------0-------0-------|-0-------0-------0-------0-------|
E|---------------------------------|---------------------------------|

   Slow                              down


Lyrics/Layout:

INTRO X2
Where are you going?
Moving too fast
I’ll always follow
Nothing will last
INTRO X1
Gold in the sunlight,
Gold in your hair
Where are you going?
Go anywhere
(CHORUS)
Slow down, Slow down
Slow down, Slow down
INTRO X1
Go down to the water
What do you see?
Caught in the sunlight
Half of it’s me
(CHORUS)
Slow down, Slow down
Slow down, Slow down
INTRO X2 with piano
(CHORUS X2)
Slow down, Slow down
Slow down, Slow down
Slow down, Slow down
Slow down, Slow down

(Girl sings:
I’ve got all day
It’s a long life
Why don’t you slow down?)

            
            
Suggest correction
Creating personal tab
Creating personal tab
You can edit any tab online and save it as your Personal.

You can edit, replace or remove any tab part or add personal notes – all changes will be seen only by you.

Personal tabs can be accessed anytime from any device, even offline.
Learn more »
Give kudos to tab author, rate the tab!
1 2 3 4 5
comments
print report bad tab
guest
You may want to rate the tab now too:
select rating
Wanna post a correction for this tab? Suggest correction