Oops, an error
Loading. Please wait.

Fight Song Tab

version 1
version 1

Whole song

980 views 3 this week
3 commentsread comments
1 2 3 4 5
accurate
x 4
add to favorites
launch autoscroll
font size
0
reset
how to read this tab
guitar tuner
Tab Pro tools
  • play this tab
  • loop segment
  • change instrument
  • show fretboard
  • metronome
×
Best way to learn
"Fight Song"
Autoscroll
slow
fast
+/-
esc
set tempo
stop
Difficulty
intermediate
Scott Stapp-Fight Song
tabbed by Guitaristgax70

the verse is alittle tricky but that's as good as i can get it for now. rate this tab

Standard Tuning in Drop D

Intro-Chorus:
E|----------------------------------------------|
B|----------------------------------------------|
G|----------------------------------2~----------|
D|---------5-1b-0---------5-1-0h1p0-------------|
A|---0-3h5---------0-3h5------------------------|
D|-0-------------0------------------------------|

Verse: 1st guitar              Repeat until the pre
E|----------------------------|------------------|
B|----------------------------|------------------|
G|----------------------------|-------6x's-------|
D|----------------------------|--0-5h6-----6-----|
A|---5-3-0--1-0-1-3-0-3-5-6-5-|--0-5h6-----6-----|
D|-0--------------------------|--0-5h6-----6-----|
 PM- - - -  - - - - - - - - - 

Verse: 2nd guitar
E|----------------------------|
B|----------------------------|
G|----------------------------|
D|----------------------------|
A|----------------------------|
D|-0-5-3-0--1-0-1-3-0-3-5-6-5-|
 PM- - - -  - - - - - - - - - 


Pre Chorus:
E|----------------------------------------------|
B|----------------------------------------------|
G|------------------15-15-15-14-14-14-----------|
D|-1-6x's-3-6x's--------------------------------|
A|-1------3---------13-13-13-12-12-12-----------|
D|-1------3-------------------------------------|

Chorus:
E|----------------------------------------------|
B|----------------------------------------------|
G|----------------------------------2~----------|
D|---------5-1b-0---------5-1-0h1p0-------------|
A|---0-3h5----------0-3h5-----------------------|
D|-0--------------0-----------------------------|

Bridge: these are the chords in the background cant figure out that lead yet.
E|---------|
B|---------|
G|---------|
D|-1--3--5-|
A|-1--3--5-|
D|-1--3--5-|
comments
print report bad tab
3 comments total.
0 reply
ScottStappFan22 wrote on December 30 2005, 04:33 pm

u kind of got the intro wrong.there is an easier faster way.but good tab.

0 reply
poc2112 wrote on January 17 2006, 12:52 pm

what's the easier way man ?

0 reply
FENDER785 wrote on April 9 2006, 10:43 pm

WTF?

I want to post or [tab]
guest
You may want to rate the tab now too:
select rating
Please do not post tabs as comments. Select "correction" instead!