Oops, an error
Loading. Please wait.

Fight Song Tab

version 2
version 2

Whole song

451 views 1 this week
no commentswrite comment
1 2 3 4 5
please rate
add to favorites
launch autoscroll
font size
0
reset
how to read this tab
guitar tuner
Autoscroll
slow
fast
+/-
esc
set tempo
stop
Help us to improve Ultimate-Guitar.com Take our survey!
×
Author
Difficulty
Tuning
intermediate
D A D G B E
This is my first tab.I am pretty sure it is right.
       Tuning:Drop D
       Artist:Scott Stapp
        Album:The Great Divide
         Song:Fight Song

   Intro    W/ Distortion

E|-------------------------|
B|-------------------------|
G|-------------------------|
D|--0----5-----0----6-----7| x2
A|--0-5h6-6-5b-0-5h6-6-5h6-|
D|--0----------0-----------|


        Guitar 2 Comes In
E|-------------------------|
B|-------------------------|
G|-------------------------|
D|--0----5-----0----6-----7| x2
A|--0-5h6-6-5b-0-5h6-6-5h6-|
D|--0----------0-----------|


        Verse

        Guitar 1
E|----------------------------|------------------|
B|----------------------------|------------------|
G|----------------------------|------------------|
D|----------------------------|--0-5h6-----6-----|
A|---5-3-0--1-0-1-3-0-3-5-6-5-|--0-5h6-----6-----|
D|-0--------------------------|--0-5h6-----6-----|
           PM

       Guitar 2
E|----------------------------|
B|----------------------------|
G|----------------------------|
D|----------------------------|
A|----------------------------|
D|-0-5-3-0--1-0-1-3-0-3-5-6-5-|
            PM

       Pre Chorus (I can go another...)

E|--------------------|
B|--------------------|
G|--------------------|
D|-1---------3------1-|
A|-1--x7-----3--x6--1-|
D|-1---------3------1-|

        Chorus
(same as Intro)
E|-------------------------|
B|-------------------------|
G|-------------------------|
D|--0----5-----0----6-----7| x2
A|--0-5h6-6-5b-0-5h6-6-5h6-|
D|--0----------0-----------|

              Verse 2
              Guitar 1
E|----------------------------|------------------|
B|----------------------------|------------------|
G|----------------------------|------------------|
D|----------------------------|--0-5h6-----6-----|
A|---5-3-0--1-0-1-3-0-3-5-6-5-|--0-5h6-----6-----|
D|-0--------------------------|--0-5h6-----6-----|
                 PM

      Guitar 2
E|----------------------------|
B|----------------------------|
G|----------------------------|
D|----------------------------|
A|----------------------------|
D|-0-5-3-0--1-0-1-3-0-3-5-6-5-|
            PM

      Pre Chorus

E|--------------------|
B|--------------------|
G|--------------------|
D|-1---------3------1-|
A|-1--x7-----3--x6--1-|
D|-1---------3------1-|

      Chorus
E|-------------------------|
B|-------------------------|
G|-------------------------|
D|--0----5-----0----6-----7| x2
A|--0-5h6-6-5b-0-5h6-6-5h6-|
D|--0----------0-----------|

        Bridge
       Guitar 1
E|-10-10h11-10-10h11---|
B|---------------------|
G|---------------------|
D|---------------------| play through whole bridge
A|---------------------|
D|---------------------|

          Guitar 2
E|------------------|
B|------------------|
G|------------------|
D|-1--3--5----------|
A|-1--3--5----------|
D|-1--3--5----------|

      Then repeat the chorus twice and then thats the song. If u have any questions or 
email me at nardulli22@yahoo.com.Thanx
Suggest correction
Give kudos to tab author, rate the tab!
1 2 3 4 5
comments
print report bad tab
guest
You may want to rate the tab now too:
select rating
Wanna post a correction for this tab? Suggest correction