Oops, an error
Loading. Please wait.

Justify Tab

version 1
version 1

Whole song

Interactive

1,971 views 3 this week
6 commentsread comments
1 2 3 4 5
accurate
x 4
add to favorites
launch autoscroll
font size
0
reset
how to read this tab
guitar tuner
Tab Pro tools
  • play this tab
  • loop segment
  • change instrument
  • show fretboard
  • metronome
×
Best way to learn
"Justify"
Autoscroll
slow
fast
+/-
esc
set tempo
stop
Contributor
Artist    : Scott Stapp
Song      : Justify
Album     : The Great Divide
Tabbed By : Brandon Philip Llapitan
E-mail    : brandon_rakista@yahoo.com
Age       : 15 yrs old
Tuning    : Drop-D

h = hammer


This is my favorite song of scott stapp from his album”the great divide”
I didn’t figure out the 2nd guitar of this song,bec I know you can figure it out!=)

Intro/Verse:
       Dm                      C                                  Bb
e-----1---0--------------------1---0----------0h1-----------------1---0-----------------0h1------|
b------------3------------------------3----------3---3-------------------3-----------------3-----|
g---2---2---2-2-(2x)then-----2---2---2-2----2-------2-3-then----2---2---2-2(3x)then---2------2-2-|
d-0-------------------------------------------------------------------------------------------0--|
a--------------------------3--------------3-------------------1---------------------1------------|
D------------------------------------------------------------------------------------------------|

Chorus: listen to the song for the strumming!
  Dm    C     Bb   G
e--------------------------------|
b--------------------------------|
g-7-----5-----3------------------|
d-7-----5-----3----5----xxxx-----|
a-5-----3-----1----5----xxxx-----|
D------------------5----xxxx-----|

That’s it! 
“All ROCKER IN THE WORLD KEEP ROCKIN!!=)”
comments
print report bad tab
6 comments total. Showing first comments.
0 reply
czarcamriv07 wrote on January 11 2006, 10:38 pm

nice tab!

0 reply
poc2112 wrote on January 17 2006, 12:56 pm

yeah good stuff man, I'll have to agree with czarcamriv07.

0 reply
czarcamriv07 wrote on January 20 2006, 03:21 am

agree daw skin?!! hahaha keep r0ckin'

I want to post or [tab]
guest
You may want to rate the tab now too:
select rating
Please do not post tabs as comments. Select "correction" instead!