Oops, an error
Loading. Please wait.

Reach Out Tab

version 1
version 1

Whole song

1,019 views 1 this week
no commentswrite comment
1 2 3 4 5
please rate
add to favorites
launch autoscroll
font size
0
reset
how to read this tab
guitar tuner
Autoscroll
slow
fast
+/-
esc
set tempo
stop
Help us to improve Ultimate-Guitar.com Take our survey!
×
Difficulty
intermediate
Scott Stapp-Reach Out
tabbed by guitaristgax70..rate this tab
email-guitaristgax70@yahoo.com

Standard tuning in D

*= harmonic
/= Slide
h= Hammer on
p= pull off

Intro: Distortion w/Wah pedal
   
   1st Guitar                 Repeat 3 times
E|-----------------------------------------||------------------|
B|-----------------------------------------||------------------|
G|-7h8-0-5h7-7h8-0-5h7-7h8-0-5h7-5-7-8/----||-7h8-5h7-3h5-2h3p2|
D|-------------------------------5-5-8/----||------------------|
A|-------------------------------3-5-6/----||------------------|
D|-----------------------------------------||------------------|
   2nd Guitar
E|-----------------------------------------------------||-----------------------------|
B|-----------------------------------------------------||-----------------------------|
G|-----------------------------------------------------||-----------------------------|
D|-12h13-0-10-12-12h13-0-10-12-12h13-0-10-12-10-12-13/-||-12-13-10-12-10-8-10-8-7-8-5-|
A|-------------------------------------------10-12-13/-||-----------------------------|
D|-------------------------------------------10-12-13/-||-----------------------------|
   1st guitar
E|----------------------------------------||Repeat
B|-3-3-3--------------------------6-6-8b--||
G|-2-2-2--5-5-7-7-7-5-5-7-7-7-5-5---------||
D|-0-0-0--5-5-7-7-7-5-5-7-7-7-5-5---------||
A|-0-0-0--3-3-5-5-5-3-3-5-5-5-3-3---------||
D|-0-0-0----------------------------------||
   2nd guitar
E|---------------------------------------------------------------||Repeat
B|-3-3-3---------------------------------------------------------||
G|-2-2-2---------------------------------------------------------||
D|-0-0-0-10-10-10h12-12-12-12-10-10-10h12-12-12-12-10-10-8-8-8-8-||
A|-0-0-0-10-10-10h12-12-12-12-10-10-10h12-12-12-12-10-10-8-8-8-8-||
D|-0-0-0-10-10-10h12-12-12-12-10-10-10h12-12-12-12-10-10-8-8-8-8-||

Verse: 1st guitar
E|------------------------------------------------|
B|-------------------------------7h8--------------|
G|-7h8-0-5h7-7h8-0-5h7-7h8-0-5h7-----8h10p8-7~----|
D|------------------------------------------------|
A|------------------------------------------------|
D|------------------------------------------------|
 2nd Guitar
E|--------------------------------------------------------------------|
B|--------------------------------------------------------------------|
G|-------------------------------------------11-12-11h12--------------|
D|-12h13-0-10-12-12h13-0-10-12-12h13-0-10-12-------------13h15p13-12~-|
A|--------------------------------------------------------------------|
D|--------------------------------------------------------------------|


Verse: Alternate pickings 2nd guitar
E|----------------------------------------------------------|
B|----------------------------------------------------------|
G|----------------------------------------------------------|
D|-0-0-0-0-0-0-0-1-1-1-1-1-1-1------------------------------|
A|-----------------------------3-3-3-3-3-3-3-5-5-5-5-5-5-5--|
D|----------------------------------------------------------|
P.M- - - - - - - - - - - - - - - - - - - - - - - - - - - - 

"I don't fear you, do you fear me? look again"
E|---------------------------------------------------------------|
B|-3-3-3-------3-3-3--------3-3-3--------------------------------|
G|-2-2-2-5/7-8-2-2-2-5/7-8--2-2-2-5/7-8---7-8-7-5-7-5-3-5-2-3-2--|
D|-0-0-0-------0-0-0--------0-0-0--------------------------------|
A|-0-0-0-3/5-6-0-0-0-3/5-6--0-0-0-3/5-6--------------------------|
D|-0-0-0-------0-0-0--------0-0-0--------------------------------|
 
    2nd guitar  3x's
E|----------------||----------------------------|
B|-3-3-3----------||----------------------------|
G|-2-2-2----------||----------------------------|
D|-0-0-0-10h12-13-||-12-13-10-12-10-8-10-8-7-8-5|
A|-0-0-0-10h12-13-||----------------------------|
D|-0-0-0-10h12-13-||----------------------------|

                  "can't give in learn to listen to it 
   1st guitar
E|----------------------------------------||Repeat
B|-3-3-3--------------------------6-6-8b--||
G|-2-2-2--5-5-7-7-7-5-5-7-7-7-5-5---------||
D|-0-0-0--5-5-7-7-7-5-5-7-7-7-5-5---------||
A|-0-0-0--3-3-5-5-5-3-3-5-5-5-3-3---------||
D|-0-0-0----------------------------------||
   2nd guitar
E|---------------------------------------------------------------||Repeat
B|-3-3-3---------------------------------------------------------||
G|-2-2-2---------------------------------------------------------||
D|-0-0-0-10-10-10h12-12-12-12-10-10-10h12-12-12-12-10-10-8-8-8-8-||
A|-0-0-0-10-10-10h12-12-12-12-10-10-10h12-12-12-12-10-10-8-8-8-8-||
D|-0-0-0-10-10-10h12-12-12-12-10-10-10h12-12-12-12-10-10-8-8-8-8-||

Before the Solo ,
Wah half way down and just keep strumming G chord.
........then strum   
E|----||------|
B|-3--||------|
G|-2--||-5--5-|
D|-0--||-5--5-|
A|-0--||-3--3-|
D|-0--||------|
   G   

Solo: Havent figured it out yet. Sorry
E|--------------------------------------------------|
B|--------------------------------------------------|
G|--------------------------------------------------|
D|--------------------------------------------------|
A|--------------------------------------------------|
D|--------------------------------------------------|
comments
We did not receive enough feedback on this tab! Please rate:
print report bad tab
1 2 3 4 5
I want to post or [tab]
guest
You may want to rate the tab now too:
select rating
Please do not post tabs as comments. Select "correction" instead!