Oops, an error
Loading. Please wait.

Surround Me Tab

version 1
version 1

Whole song

2,124 views 1 this week
no commentswrite comment
1 2 3 4 5
please rate
add to favorites
launch autoscroll
font size
0
reset
how to read this tab
guitar tuner
Tab Pro tools
  • play this tab
  • loop segment
  • change instrument
  • show fretboard
  • metronome
×
Best way to learn
"Surround Me"
Autoscroll
slow
fast
+/-
esc
set tempo
stop
Contributor
Difficulty
intermediate
Scott Stapp – Surround Me

The CD track is played with two guitars, but this tab is
written for one guitar.  There are a few accents and
harmonics left out because of that, but otherwise I’m
pretty sure this is it.

Intro

---------5---------------5----------|
-----5-----5---5-----5-----5---5----|
---7---------------7----------------|
-7-----7-----7---7-----7-----7------|
------------------------------------|
------------------------------------|

---------5---------------5----------|
-----5-----5---5-----5-----5---5----|
---7---------------7----------------|
-0-----0-----0---0-----0-----0------|
------------------------------------|
------------------------------------|

---------5---------------5----------|
-----5-----5---5-----5-----5---5----|
---4---------------4----------------|
-4-----4-----4---4-----4-----4------|
------------------------------------|
------------------------------------|

---------0---------------0----------|
-----0-----0---0-----0-----0---0----|
---2---------------2----------------|
-2-----2-----2---2-----2-----2------|
------------------------------------|
------------------------------------|


Verse:

 Asus2 Dsus2  F#m  Esus4
---0-----0-----2-----0---|
---0-----3-----2-----0---|
---2-----2-----2-----2---|
---2-----0-----4-----2---|
---0-----x-----4-----2---|
---x-----x-----2-----0---|


Chorus:  (Distortion)

   A5    D5   F#5    E5
---x-----x-----x-----x--|
---x-----x-----x-----x--|
---2-----7-----11----9--|
---2-----7-----11----9--|
---0-----5-----9-----7--|
---x-----x-----x-----x--|
comments
We did not receive enough feedback on this tab! Please rate:
print report bad tab
1 2 3 4 5
I want to post or [tab]
guest
You may want to rate the tab now too:
select rating
Please do not post tabs as comments. Select "correction" instead!