Oops, an error
Loading. Please wait.

Surround Me Tab

version 3
version 3

Whole song

2,284 views 1 this week
2 commentsread comments
1 2 3 4 5
excellent!
x 3
add to favorites
launch autoscroll
font size
0
reset
how to read this tab
guitar tuner
Tab Pro tools
  • play this tab
  • loop segment
  • change instrument
  • show fretboard
  • metronome
×
Best way to learn
"Surround Me"
Autoscroll
slow
fast
+/-
esc
set tempo
stop
Contributor
Difficulty
novice
Artist: Scott Stapp
Song: Surround me
Tabbed by: sp8@B.o.B
Tuning: Standard
This is my first tab so forgive any mistakes and please rate

Chords used:    Asus      Dsus     Fmaj      E
            E--------- E------- E-2------ E---------|
            B--------- B-3----- B-2------ B---------|
            G-2------- G-2----- G-2------ G-1-------|
            D-2------- D------- D-4------ D-2-------|
            A--------- A------- A-4------ A-2-------|
            E--------- E------- E-2------ E---------|
Riff 1

E---------5---------------5-----------|
B---5---5---5---5---5---5---5---5-----|
G-----7---------------7---------------|
D-7-----------7---7-----------7-------|
A-------------------------------------|
E-------------------------------------|

Riff 2
E---------5---------------5-----------|
B---5---5---5---5---5---5---5---5-----|
G-----7---------------7---------------|
D-0-----------0---0-----------0-------|
A-------------------------------------|
E-------------------------------------|

Riff 3
E---------5---------------5-----------|
B---2---2---2---2---2---2---2---2-----|
G-----2---------------2---------------|
D-4-----------4---4-----------0-------|
A-------------------------------------|
E-------------------------------------|

Riff 4
E---------0---------------0-----------|
B-----3-----3---3-----3-----3---3-----|
G---4---4-----------4---4-------------|
D-2-----------2---2-----------2-------|
A-------------------------------------|
E-------------------------------------|
Intro: Riffs 1 to 4 [Guitar 1]

Verse 1
Riff 1
E---------5---------------5-----------|
B---5---5---5---5---5---5---5---5-----|
G-----7---------------7---------------|
D-7-----------7---7-----------7-------|
A-------------------------------------|
E-------------------------------------|
They say no man’s an
Riff 2
E---------5---------------5-----------|
B---5---5---5---5---5---5---5---5-----|
G-----7---------------7---------------|
D-0-----------0---0-----------0-------|
A-------------------------------------|
E-------------------------------------|
Island but I
Riff 3
E---------5---------------5-----------|
B---2---2---2---2---2---2---2---2-----|
G-----2---------------2---------------|
D-4-----------4---4-----------0-------|
A-------------------------------------|
E-------------------------------------|
Tend to disagree


Riff 4
E---------0---------------0-----------|
B-----3-----3---3-----3-----3---3-----|
G---4---4-----------4---4-------------|
D-2-----------2---2-----------2-------|
A-------------------------------------|
E-------------------------------------|


Riff 1
E---------5---------------5-----------|
B---5---5---5---5---5---5---5---5-----|
G-----7---------------7---------------|
D-7-----------7---7-----------7-------|
A-------------------------------------|
E-------------------------------------|
I guess they’ve never
Riff 2
E---------5---------------5-----------|
B---5---5---5---5---5---5---5---5-----|
G-----7---------------7---------------|
D-0-----------0---0-----------0-------|
A-------------------------------------|
E-------------------------------------|
Seen my island
Riff 3
E---------5---------------5-----------|
B---2---2---2---2---2---2---2---2-----|
G-----2---------------2---------------|
D-4-----------4---4-----------0-------|
A-------------------------------------|
E-------------------------------------|
Or where it lies at sea
Riff 4
E---------0---------------0-----------|
B-----3-----3---3-----3-----3---3-----|
G---4---4-----------4---4-------------|
D-2-----------2---2-----------2-------|
A-------------------------------------|
E-------------------------------------|

Riff 1
E---------5---------------5-----------|
B---5---5---5---5---5---5---5---5-----|
G-----7---------------7---------------|
D-7-----------7---7-----------7-------|
A-------------------------------------|
E-------------------------------------|
I’m lost inside myß--light strumming [guitar 2] begins: Asus
Riff 2
E---------5---------------5-----------|
B---5---5---5---5---5---5---5---5-----|
G-----7---------------7---------------|
D-0-----------0---0-----------0-------|
A-------------------------------------|
E-------------------------------------|
Memory ß--Dsus [guitar 2]
Riff 3
E---------5---------------5-----------|
B---2---2---2---2---2---2---2---2-----|
G-----2---------------2---------------|
D-4-----------4---4-----------0-------|
A-------------------------------------|
E-------------------------------------|
Still in disbeliefß-- Fmaj, E [guitar 2]
Riff 4
E---------0---------------0-----------|
B-----3-----3---3-----3-----3---3-----|
G---4---4-----------4---4-------------|
D-2-----------2---2-----------2-------|
A-------------------------------------|
E-------------------------------------|


Riff 1
E---------5---------------5-----------|
B---5---5---5---5---5---5---5---5-----|
G-----7---------------7---------------|
D-7-----------7---7-----------7-------|
A-------------------------------------|
E-------------------------------------|
If I could paint a ß--Asus [guitar 2]
Riff 2
E---------5---------------5-----------|
B---5---5---5---5---5---5---5---5-----|
G-----7---------------7---------------|
D-0-----------0---0-----------0-------|
A-------------------------------------|
E-------------------------------------|
Picture for youß--Dsus [guitar 2]
Riff 3
E---------5---------------5-----------|
B---2---2---2---2---2---2---2---2-----|
G-----2---------------2---------------|
D-4-----------4---4-----------0-------|
A-------------------------------------|
E-------------------------------------|
This is what you’d seeß--Fmaj, E~ [guitar 2]
Riff 4
E---------0---------------0-----------|
B-----3-----3---3-----3-----3---3-----|
G---4---4-----------4---4-------------|
D-2-----------2---2-----------2-------|
A-------------------------------------|
E-------------------------------------|

1st Chorus [Guitar 2 plays Asus, Dsus, Fmaj and E lightly throughout]
[Guitar 1]
E--------------s5~---9~-|
B-----------------------|
G-----------------------|
D-----------------------|
A-----------------------|
E-----------------------|
I’m down on my knees

E-5~------------------5~-|
B--------------3~--------|
G------------------------|
D------------------------|
A------------------------|
E------------------------|
Begging you to rescue me

E---------------------------5~-|
B-----------------3--2---------|
G------------------------------|
D------------------------------|
A------------------------------|
E------------------------------|
Please stop me don’t let me run

E----------------------------|
B-2--------------------------|
G------4~--------------------|
D----------------------------|
A----------------------------|
E----------------------------|
Surround me    surround me now

Riffs 1 to 4 [guitar 1]
Full strum [guitar 2]: Asus-Riff 1, Dsus-Riff 2, Fmaj-Riff 3, E-Riff 4

Verse 2
Riff 1 Guitar 1/ Asus Guitar 2
A wounded man sounds
Riff 2 Guitar 1/ Dsus Guitar 2
Desperate when he’s
Riff 3 Guitar 1/ Fmaj Guitar 2
Lost all his
Riff 4 Guitar 1/ E Guitar 2
Belief
Riff 1 Guitar 1/ Asus Guitar 2
Can you look in
Riff 2 Guitar 1/ Dsus Guitar 2
To my eyes and
Riff 3 Guitar 1/ Fmaj Guitar 2
Say you won’t betray
Riff 4 Guitar 1/ E Guitar 2
Me
Riff 1 Guitar 1/ Asus Guitar 2
We’re running out of
Riff 2 Guitar 1/ Dsus Guitar 2
Time
Riff 3 Guitar 1/ Fmaj Guitar 2
How precious time can
Riff 4 Guitar 1/ E Guitar 2
be
Riff 1 Guitar 1/ Asus Guitar 2
I’m counting all the
Riff 2 Guitar 1/ Dsus
Moments of the
Riff 3 Guitar 1/ Fmaj Guitar 2
Times you could have
Riff 4 Guitar 1/ E Guitar 2
Helped me

Chorus 2 [Distortion: both guitars]
             Asus
I’m down on my knees
             Dsus
Begging you to rescue me
                   Fmaj
Please stop me don’t let me run
           E
Surround me  surround me

             Asus
I’m down on my knees
             Dsus
Begging you to rescue me
                   Fmaj
Please stop me don’t let me run
        E
Surround me
         Asus
Surround me yeah
         Dsus
Surround me yeah
         Fmaj
Surround me yeah
         E
Surround me now

Distortion dies down here
               Asus
I’m down on my knees
               Dsus
Begging you to rescue me
                     Fmaj
Please stop me don’t let me run
Eß--distortion comes in again
Surround me     surround me
             Asus
I’m down on my knees
             Dsus
Begging you to rescue me
                   Fmaj
Please stop me don’t let me run
           E
Surround me  surround me

             Asus
I’m down on my knees
             Dsus
Begging you to rescue me
                   Fmaj
Please stop me don’t let me run
        E
Surround me
         Asus
Surround me yeah
         Dsus
Surround me yeah
         Fmaj
Surround me yeah
         E
Surround me yeah
          Asus
Surround me now
          Dsus
Surround me now
          Fmaj
Surround me now
           Eß--Distortion fades
Surround me now

Outro
              Asus
I’m down on my knees
               Fmaj    E
Begging you to rescue  me

s-slide
~let ring


That’s it. Hope you enjoy. Rock on
comments
We did not receive enough feedback on this tab! Please rate:
print report bad tab
1 2 3 4 5
2 comments total.
0 reply
Altermonti wrote on September 27 2007, 03:24 am

pretty good dude. try this for an intro:

|----------5---------------5--------|----------5---------------5-------|
|----5---5---5-------5---5---5------|----5---5---5-------5---5---5-----|
|------7---------7-----7---------7--|------7---------7-----7-----------|
|--7-----------7---7-----------7----|-------------------------------0--|
|-----------------------------------|--5-----------5---5---------------|
|-----------------------------------|----------------------------------|

|----------5---------------5--------|----------0---------------0-------|
|------3-----3---------3-----3------|------3-----3---3-----3-----3-----|
|----6---6-------6---6---6----------|----4---4-----4-----4---4---------|
|--4-----------4---4------------0---|--2---------------2------------0--|
|-----------------------------------|----------------------------------|
|-----------------------------------|----------------------------------|

not the exact way its played, but sounds exact.

0 reply
sem_grey wrote on October 1 2007, 09:39 pm

yeh yeh dat sounds perfect 2 bro....not bad at all

I want to post or [tab]
guest
You may want to rate the tab now too:
select rating
Please do not post tabs as comments. Select "correction" instead!