Oops, an error
Loading. Please wait.

You Will Sour Bass Tab

180 views 1 this week
no commentswrite comment
1 2 3 4 5
3 more votes to show rating
add to favorites
launch autoscroll
font size
0
reset
guitar tuner
Autoscroll
slow
fast
+/-
esc
set tempo
stop
Help us to improve Ultimate-Guitar.com Take our survey!
×
tunning
DAdgbe

intro

e------------------------------------------------------|
d------------------------------------------------------|
A--2-2-2-2-2-2---------------5-5-5-5-5-5-5-5-5-5-5-5---|
D--------------5-5-5-5-5-5-5---------------------------|


e------------------------------------------------------|
d------------------------------------------------------|
A--2-2-2-2-2-2---------------5-5-5-5-5-5-3h5-5-5-5-5-5-|
D--------------5-5-5-5-5-5-5---------------------------|


chorus

e-------------------------------------------|
d-------------------------------------------|
A--2-2-2-------5-5-5-10-10-10---------------|
D--------5-5-5----------------5-5-5--5-4-7--|

"i wish i could take you away.."

e------------------------------------------------------|
d------------------------------------------------------|
A--2-2-2-2-2-2-----------------------------------------|
D--------------5-5-5-5-5-5-5--0-0-0-0-0-0-0-0-0-0-0-0--|



last chorus
e-------------------------------------------|
d-------------------------------------------|
A--2-2-2-------5-5-5-10-10-10---------------|
D--------5-5-5-------------------0----------|


you will sour...!

e--------|
d--------|
A--------|
D---5----|



you will sour...!

e-------------------------|
d-------------------------|
A-------------------------|
D-5--5-5---5--5-5---5--5-5|



you will sour...!

e--------|
d--------|
A--------|
D-0------|

any comments..
abarcenafricke@hotmail.com

Suggest correction
Give kudos to tab author, rate the tab!
1 2 3 4 5
comments
print report bad tab
guest
You may want to rate the tab now too:
select rating
Wanna post a correction for this tab? Suggest correction