Oops, an error
Loading. Please wait.

Black Sheep Boy bass

19 views 3 this week
no commentswrite comment
1 2 3 4 5
3 more votes to show rating
add to favorites
×
Save as Personal and add changes to this tab that will be seen only by you. Learn more ›
×
You can save this tab as Personal to edit and correct it or add notes. All changes will be seen only by you. Learn more »
launch autoscroll
font size
0
reset
guitar tuner
edit
Autoscroll
slow
fast
+/-
esc
set tempo
stop
Author
Difficulty
Tabbed by: 6METAL6BASSIST6
E-mail: petergriffinav@gmail.com

Tuning: EADG

G|----------------------------------------------------------------|
D|----------------------------------------------------------------|
A|4---------------4-----------------------------------------------|
E|--------------------------------4---------------4---------------|

G|----------------------------------------------------------------|
D|----------------------------------------------------------------|
A|--------------------------------4-------4-----------------------|
E|4---------------4-------------------------------4---------------|

0:09

G|----------------------------------------------------------------|
D|----------------------------------------------------------------|
A|4---------------3---------------1-------------------------------|
E|------------------------------------------------4---------------|

G|----------------------------------------------------------------|
D|----------------------------------------------------------------|
A|------------------------------------------------1-------3-------|
E|4---------------4---------------4-------------------------------|

G|----------------------------------------------------------------|
D|----------------------------------------------------------------|
A|4---------------3---------------1-----------------------1-------|
E|------------------------------------------------4---------------|

G|----------------------------------------------------------------|
D|----------------------------------------------------------------|
A|----------------1-------3-------4---------------3---------------|
E|4---------------------------------------------------------------|

0:23

G|----------------------------------------------------------------|
D|----------------------------------------------------------------|
A|1---------------1-----------------------------------------------|
E|--------------------------------4---------------4---------------|

G|----------------------------------------------------------------|
D|----------------------------------------------------------------|
A|--------------------------------4-----------------------3-------|
E|2---------------2-------------------------------4---------------|

G|----------------------------------------------------------------|
D|----------------------------------------------------------------|
A|4---------------3---------------1-------------------------------|
E|------------------------------------------------4---------------|

G|--------------------------------|
D|--------------------------------|
A|----------------1-------3-------|
E|4-------------------------------|

G|----------------------------------------------------------------|
D|----------------------------------------------------------------|
A|4-------------------------------4-------------------------------|
E|----------------4-------------------------------4-----------4---|

0:40

G|----------------------------------------------------------------|
D|----------------------------------------------------------------|
A|4---------------3---------------1-------------------------------|
E|------------------------------------------------4---------------|

G|----------------------------------------------------------------|
D|----------------------------------------------------------------|
A|------------------------------------------------1-------3-------|
E|4---------------4---------------4-------------------------------|

G|----------------------------------------------------------------|
D|----------------------------------------------------------------|
A|4---------------3---------------1-----------------------1-------|
E|------------------------------------------------4---------------|

G|----------------------------------------------------------------|
D|----------------------------------------------------------------|
A|----------------1-------3-------4---------------3---------------|
E|4---------------------------------------------------------------|

0:55

G|----------------------------------------------------------------|
D|----------------------------------------------------------------|
A|1---------------1-----------------------------------------------|
E|--------------------------------4---------------4---------------|

G|----------------------------------------------------------------|
D|----------------------------------------------------------------|
A|--------------------------------4-----------------------3-------|
E|2---------------2-------------------------------4---------------|

G|----------------------------------------------------------------|
D|----------------------------------------------------------------|
A|4---------------3---------------1-------------------------------|
E|------------------------------------------------4---------------|

G|--------------------------------|
D|--------------------------------|
A|----------------1-------3-------|
E|4-------------------------------|

G|----------------------------------------------------------------|
D|----------------------------------------------------------------|
A|4-------------------------------4-------------------------------|
E|----------------4-------------------------------4---------------|

1:12

G|----------------------------------------------------------------|
D|----------------------------------------------------------------|
A|4---------------3---------------1-------------------------------|
E|------------------------------------------------4---------------|

G|----------------------------------------------------------------|
D|----------------------------------------------------------------|
A|------------------------------------------------1-------3-------|
E|4---------------4---------------4-------------------------------|

G|----------------------------------------------------------------|
D|----------------------------------------------------------------|
A|4---------------3---------------1-----------------------1-------|
E|------------------------------------------------4---------------|

G|----------------------------------------------------------------|
D|----------------------------------------------------------------|
A|----------------1-------3-------4---------------3---------------|
E|4---------------------------------------------------------------|

1:27

G|----------------------------------------------------------------|
D|----------------------------------------------------------------|
A|1---------------1-----------------------------------------------|
E|--------------------------------4---------------4---------------|

G|----------------------------------------------------------------|
D|----------------------------------------------------------------|
A|--------------------------------4-----------------------3-------|
E|2---------------2-------------------------------4---------------|

G|----------------------------------------------------------------|
D|----------------------------------------------------------------|
A|4---------------3---------------1-------------------------------|
E|------------------------------------------------4---------------|

G|--------------------------------|
D|--------------------------------|
A|----------------1-------3-------|
E|4-------------------------------|

G|----------------------------------------------------------------|
D|----------------------------------------------------------------|
A|4-------------------------------4-------------------------------|
E|----------------4-------------------------------4---------------|

1:44

G|----------------------------------------------------------------|
D|----------------------------------------------------------------|
A|4---------------3---------------1-------------------------------|
E|------------------------------------------------4---------------|

G|----------------------------------------------------------------|
D|----------------------------------------------------------------|
A|------------------------------------------------1-------3-------|
E|4---------------4---------------4-------------------------------|

G|----------------------------------------------------------------|
D|----------------------------------------------------------------|
A|4---------------3---------------1-----------------------1-------|
E|------------------------------------------------4---------------|

G|----------------------------------------------------------------|
D|----------------------------------------------------------------|
A|----------------1-------3-------4---------------3---------------|
E|4---------------------------------------------------------------|

1:59

G|----------------------------------------------------------------|
D|----------------------------------------------------------------|
A|1---------------1-----------------------------------------------|
E|--------------------------------4---------------4---------------|

G|----------------------------------------------------------------|
D|----------------------------------------------------------------|
A|--------------------------------4-----------------------3-------|
E|2---------------2-------------------------------4---------------|

G|----------------------------------------------------------------|
D|----------------------------------------------------------------|
A|4---------------3---------------1-------------------------------|
E|------------------------------------------------4---------------|

G|----------------------------------------------------------------|
D|----------------------------------------------------------------|
A|----------------1-------3-------4-------------------------------|
E|4-----------------------------------------------4---------------|

2:14

G|----------------------------------------------------------------|
D|----------------------------------------------------------------|
A|1---------------1-----------------------------------------------|
E|--------------------------------4---------------4---------------|

G|----------------------------------------------------------------|
D|----------------------------------------------------------------|
A|--------------------------------4-----------------------3-------|
E|2---------------2-------------------------------4---------------|

G|----------------------------------------------------------------|
D|----------------------------------------------------------------|
A|4---------------3---------------1-------------------------------|
E|------------------------------------------------4---------------|

G|------------------------------------|
D|------------------------------------|
A|----------------1-------3-------4---|
E|4-----------------------------------|

            
            
Suggest correction
Creating personal tab
Creating personal tab
You can edit any tab online and save it as your Personal.

You can edit, replace or remove any tab part or add personal notes – all changes will be seen only by you.

Personal tabs can be accessed anytime from any device, even offline.
Learn more »
Give kudos to tab author, rate the tab!
1 2 3 4 5
comments
print report bad tab
guest
You may want to rate the tab now too:
select rating
Wanna post a correction for this tab? Suggest correction