Oops, an error
Loading. Please wait.

Everythings Alright tab

189 views 3 this week
no commentswrite comment
1 2 3 4 5
3 more votes to show rating
add to favorites
×
Save as Personal and add changes to this tab that will be seen only by you. Learn more ›
×
You can save this tab as Personal to edit and correct it or add notes. All changes will be seen only by you. Learn more »
launch autoscroll
font size
0
reset
how to read this tab
guitar tuner
edit
Autoscroll
slow
fast
+/-
esc
set tempo
stop
Author
ARTIST: Scotty Don't
SONG:   Everything's Alright

Intro Part 1:

e|----7--7--10-9--7---5--5h7-5-5--------------------5-7-9-7-5----------| 
B|--/7--7--7--7--7---5--5-----5---7-8-8---7-8-8----5-5-5-5-5-----------|
G|--------------------------------7--7----7--7-------------------------| (X2)
D|---------------------------------------------------------------------|
A|---------------------------------------------------------------------|
E|---------------------------------------------------------------------|

e|----7--7--10-9--7---5--5h7-5-5--------------------5-7-9~ ------------| 
B|--/7--7--7--7--7---5--5-----5---7-8-8---7-8-8----5-5-5---------------|
G|--------------------------------7--7----7--7-------------------------|
D|---------------------------------------------------------------------|
A|---------------------------------------------------------------------|
E|---------------------------------------------------------------------|

   Rhythm is just strummed once during intro 1.. A, B, C, A
   
   Then strummed fast during this part..

Intro Part 2:

e|--10-9-7----------------------10-9-7---------------------------------|
B|----------10-7-5----5-7-5------------10-7-5---5-7-5------------------|
G|------------------7-------------------------7-------7-6--------------|
D|---------------------------------------------------------------------|
A|---------------------------------------------------------------------|
E|---------------------------------------------------------------------|

e|--10-9-7----------------------10-9-7---------------------------------|
B|----------10-7-5----5-7-5------------10-7-5---5-7-5------------------|
G|------------------7-------------------------7-------7-6--4---4h6-2---|
D|---------------------------------------------------------------------|
A|---------------------------------------------------------------------|
E|---------------------------------------------------------------------|

B                                  A#            A
I'm at the end of the middle snakin' out of the back door
D      E                                        B
At the beginning that we called the finish line yesterday

B                                                   A#    A
A new day like a fresh coat of paint, just a haze on the old mistakes
D        E    
But it's good enough to scrape by and dodge a little decay

I need some electricity to fill the lightbulb 
that's been dimming inside my brain
Cause day out day in everyone's throwng me 
excuses and it's gonna drive me insane

Every time I add it up oh yeah I catch somebody subtracting me
Getting in a bit of trouble to alleviate the struggle I'm a victim of a third degree

Gotta get me high and dry
Under that big blue sky
With a slow down circle and a body of a goddess
That'll tell me everything's alright

Gotta get me high and dry
Under that big blue sky
With a slow down circle and a body of a goddess
That'll tell me everything's alright
Alright, Alright



The same chords are played throughout the song.

Have Fun!

BTW this is my first tab

            
            
Suggest correction
Creating personal tab
Creating personal tab
You can edit any tab online and save it as your Personal.

You can edit, replace or remove any tab part or add personal notes – all changes will be seen only by you.

Personal tabs can be accessed anytime from any device, even offline.
Learn more »
Give kudos to tab author, rate the tab!
1 2 3 4 5
comments
print report bad tab
guest
You may want to rate the tab now too:
select rating
Wanna post a correction for this tab? Suggest correction