Oops, an error
Loading. Please wait.

See You Tonight Tab

version 1
version 1

Intro

Whole song

6,026 views 15 this week
2 commentsread comments
1 2 3 4 5
excellent!
x 4
add to favorites
launch autoscroll
font size
0
reset
how to read this tab
guitar tuner
Tab Pro tools
  • play this tab
  • loop segment
  • change instrument
  • show fretboard
  • metronome
Autoscroll
slow
fast
+/-
esc
set tempo
stop
Contributor
Difficulty
intermediate
Scotty McCreery,   "See You Tonight"


(intro)
e|-5-s-9--7-s-9--5-----------5-s-9--7-s-9--5-------------|
B|-5-s-10-9-s-10-5-----------5-s-10-9-s-10-5-------------|
G|-6------9------6-6brbrbr---6------9------6-6brbrbr-----|
D|-7-------------7---------7-7-------------7---------7-7-|
A|-------------------------------------------------------|
E|-------------------------------------------------------|


A                     E                     F#m   D
Girl, you know I love talking to you on the phone
A                       E                     F#m  D 
 I could listen to your sweet voice all night long
A           E                 F#m               D
Sometimes I can get by with a sweet dreams baby good night,
    A                E                      D
But this time, well, I don't wanna spend it alone


(chorus)
              A                   E
So I'm coming over, I hope it's alright
           F#m                  D
Listen for me pulling into your drive
              A                      E
Look out your window – you'll see my lights
F#m        D                     A
Baby(baby) girl, I gotta see you tonight
                      E
The way the breeze is blowing, blowing
F#m                   D
 Got me wishing I was holding, holding
A             E                      F#m
 On to you so tight under that porch light
    D                       A        E        F#m
But girl, I gotta see you tonight, tonight, tonight
D                       A        E        F#m    D
Girl, I gotta see you tonight, tonight, tonight

D
(instrumental)
e|-----------5-|
B|-----------5-|
G|-6rbrbrb---6-|
D|---------7-7-|
A|-------------|
E|-------------|

(verse)
A                       E                       F#m   D,
 I got a couple hundred pictures of your pretty face
      A            E                   F#m   D 
On my phone, on my dash – all over the place
    A               E
But I would drive a million miles
F#m              D               A
Just to see that little smile in real life
E                    F#m                     D
baby, it's worth the drive, you're worth the drive.



(chorus)
              A                   E
So I'm coming over, I hope it's alright
           F#m                  D
Listen for me pulling into your drive
              A                      E
Look out your window – you'll see my lights
F#m        D                     A
Baby(baby) girl, I gotta see you tonight
                      E
The way the breeze is blowing, blowing
F#m                   D
 Got me wishing I was holding, holding
A             E                      F#m
 On to you so tight under that porch light
    D                       A        E        F#m
But girl, I gotta see you tonight, tonight, tonight
D                       A        E        F#m 
Girl, I gotta see you tonight, tonight, tonight, woah


(instrumental-bridge)
e|---------------------------------------------------------------|
B|---7---7-9-10-9-7---10-9-7--9br-7-------------s7-9-s10-s12-s14-|
G|-9---9------------9-------9-------9br-7-9p7s6------------------|
D|---------------------------------------------------------------|
A|---------------------------------------------------------------|
E|---------------------------------------------------------------|

A
No, I don't care what time it is,
A
I just gotta get a little moonlight kiss
A
Girl, I can't help it when I feel like this
A                             D
There's only one thing to do, baby, I'm missing you




(chorus-out)
           A                   E
I'm coming over, I hope it's alright
           F#m                  D
Listen for me pulling into your drive
              A                      E
Look out your window – you'll see my lights
F#m        D                     A
Baby(baby) girl, I gotta see you tonight
                      E
The way the breeze is blowing, blowing
F#m                   D
 Got me wishing I was holding, holding
A               E                      F#m
 Holding you so tight under that porch light
D                       A        E        F#m
Girl, I gotta see you tonight, tonight, tonight
D                       A        E        F#m 
Girl, I gotta see you tonight, tonight, tonight, yeah

e|--------------9-s9----s9----7br-------------9-s9----s9-------------10-|
B|----10---12--------12----10-----10---7-10--------12-----10------10-10-|
G|-s9----9----9----------------------9------9----------------9h11----11-|
D|-------------------------------------------------------------------12-|
A|-------------------------------------------------------------------12-|
E|-------------------------------------------------------------------10-|
                                 Girl, I gotta see you tonight

e|-5-s-9--7-s-9--5-----------5-s-9--7-s-9--5-------------|
B|-5-s-10-9-s-10-5-----------5-s-10-9-s-10-5-------------|
G|-6------9------7-6brbrbr---6------9------7-6brbrbr-----|
D|-7-------------7---------7-7-------------7---------7-7-|
A|-------------------------------------------------------|
E|-------------------------------------------------------|
                                               repeat, fade...
comments
print report bad tab
2 comments total.
0 reply
augudyne wrote on March 28 2014, 05:03 pm

Here is my version of the intro that is much more intuitive to play and sounds good:

(intro)
e|---------4-------------------------------|
B|-2--3s5--5--3s5-2-2h3ph3ph3p-------------|
G|-2--4s6--4--4s6-2------------4--2--------|
D|-2--5s7--6--5s7-2------------------------|
A|-----------------------------------------|
E|-----------------------------------------| x2

0 reply
augudyne wrote on March 28 2014, 05:05 pm, edited at 05:06 pm

Sry repost

I want to post or [tab]
guest
You may want to rate the tab now too:
select rating
Please do not post tabs as comments. Select "correction" instead!