Oops, an error
Loading. Please wait.

The Trouble With Girls Tab

2,774 views 9 this week
no commentswrite comment
1 2 3 4 5
please rate
add to favorites
launch autoscroll
font size
0
reset
how to read this tab
guitar tuner
Tab Pro tools
  • play this tab
  • loop segment
  • change instrument
  • show fretboard
  • metronome
Autoscroll
slow
fast
+/-
esc
set tempo
stop
Contributor
Hello :) well, this is my second tab. I dedicate this song to Marian who, I think, 
deserves such wonderful song. She is hard to find, believe me. Meeting her is a trouble which 
I gladly would like to live with :3

3rd Capo for the Chords..no capo for the tab.


e|--------7s9s11--9--7---7------------------------------|
B|-5--7-------------------------------------------------|
G|------------------------------------------------------| Repeat thrice
D|------------------------------------------------------|
A|------------------------------------------------------|
E|------------------------------------------------------|

e|------------------------|
B|-5--7s9---7-------------|
G|------------------------|
D|------------------------|
A|------------------------|
E|------------------------|


       G
  The trouble with girls is they're a mystery
 Em7
  Something about 'em puzzles me
   Cadd9
  Spent my whole life trying to figure out
       D/F#
  Just what them girls are all about

        G
  The trouble with girls is they're so dang pretty
 Em7
  Everything about them does somethin' to me
Cadd9                                       D/F#
  I guess that's the way it's supposed to be


         G
  They smile that smile
      Cadd9
  They bat those eyes
        Em7
  They steal you with hello
       D/F#
  They kill you with goodbye
                 G
  They hook you with one touch
          Cadd9
  And you can't break free
            Em7
  Yeah the trouble with girls
       D/F#
  Is nobody loves trouble as much as me

e|-------7s9s11--9--7--7----------- ------|
B|-5--7--------------------5--7s9---7-----|
G|----------------------------------------|
D|----------------------------------------|
A|----------------------------------------|
E|----------------------------------------|



           G
  They're sugar and spice and angel wings
          Em7
  Hell on wheels in tight blue jeans
    Cadd9
  A Summer night down by the lake
     D/F#
  An old memory that you can't shake

           G
  They're hard to find yet there's so many of em
     Em7
  The way that you hate that you already love em
Cadd9                                          D/F#
  But I guess that's the way it's supposed to be


         G
  They smile that smile
      Cadd9
  They bat those eyes
        Em7
  They steal you with hello
       D/F#
  They kill you with goodbye
                 G
  They hook you with one touch
          Cadd9
  And you can't break free
            Em7
  Yeah the trouble with girls
       D/F#
  Is nobody loves trouble as much as me

(repeat tab)


Em7                                Cadd9
  The way they hold you out on the dance floor
                                      G
  The way they ride in the middle of your truck
                                      D/F#
  The way they give you a kiss at the front door
                                    Em7
  Leave you wishing you coulda gone up
                       Cadd9
  And just as you walk away
                             G
  You hear that sweet voice say
  D/F#
  Stay


      G
  They smile that smile
      Cadd9
  They bat those eyes
        Em7
  They steal you with hello
       D/F#
  They kill you with goodbye
               G
  They're the perfect drug
          Cadd9
  And you can't break free
            Em7
  Yeah the trouble with girls
       D/F#
  Is nobody loves trouble as much as me


Outro:

e|--------7s9s11--9--7---7------------------------------|
B|-5--7-------------------------------------------------|
G|------------------------------------------------------| Repeat thrice
D|------------------------------------------------------| (note: don't pluck
A|------------------------------------------------------|  the last 7th fret
E|------------------------------------------------------|  on the third                  
 repetition)

then

e|------------------------|
B|------------------------|
G|---5--7s9--7---5--------|
D|------------------------|
A|------------------------|
E|------------------------|
comments
We did not receive enough feedback on this tab! Please rate:
print report bad tab
1 2 3 4 5
I want to post or [tab]
guest
You may want to rate the tab now too:
select rating
Please do not post tabs as comments. Select "correction" instead!