Oops, an error
Loading. Please wait.

Kiss tab

version 1
version 1

Whole song

933 views 3 this week
no commentswrite comment
1 2 3 4 5
2 more votes to show rating
add to favorites
×
Save as Personal and add changes to this tab that will be seen only by you. Learn more ›
×
You can save this tab as Personal to edit and correct it or add notes. All changes will be seen only by you. Learn more »
launch autoscroll
font size
0
reset
how to read this tab
guitar tuner
edit
Autoscroll
slow
fast
+/-
esc
set tempo
stop
-------------------------------------------------------------------------------
                             Kiss by Scout Niblett
-------------------------------------------------------------------------------

Tabbed by: Scott H.

Tuning: EADGBE


Intro
        
         E           E            E           E
e|---------------------------------------------------------------|
B|---------------------------------------------------------------|
G|-------1-----------1------------1-----------1------------------|
D|-----2---2-------2---2--------2---2-------2----2---------------|
A|---2-------2---2-------2---2--------2---2--------2-------------|
E|-0-----------0----------0-------------0------------0-----------|



Verse/Chorus

         E         B5 C5 C#5     Am5     E
e|----------------------------------------------------|
B|----------------------------------------------------|
G|-------1---------44--5--6---6b-6b-6b---1------------|
D|-----2---2-------44--5--6---7b-7b-7b---2------------|
A|---2-------2-----22--3--4---7b-7b-7b---2------------|
E|-0-----------0--------------5b-5b-5b----------------|



Lyrics:

A kiss could've killed me
If it were not for the rain
A kiss could've killed me
Baby if it were not for the rain

And I had a feeling it was coming on
And I felt it coming
For so long
If I'm to be the fool
Then so it be

This fool can die now
With a heart that's soaked
How
How had it coming
For so long

And darling take my hand
And lead me through the door
Let's kidnap each other
And start singing our song

My heart is charged now
Oh, it's dancing in my chest
And I fly when I walk now
From the spell in that kiss

Cause I ...

It could've
It could've killed me
It could've killed me
If it were not for the rain

Oh darling let me dream
Cause somewhere inside me
I have been waiting
So patiently
For you

So don't you break
Don't break my dream
Don't break my dream

Let the rain exalt us
As the night draws in
Winds howl around us
As we begin
What a way to start a fire
Broken with the break of day

A kiss could have killed me
If it were not for rain

And I have a feeling it's coming on
And I felt it coming on
for so long

And oh it could've
It could've killed me
It could've killed me
If it were not for the rain

            
            
Suggest correction
Creating personal tab
Creating personal tab
You can edit any tab online and save it as your Personal.

You can edit, replace or remove any tab part or add personal notes – all changes will be seen only by you.

Personal tabs can be accessed anytime from any device, even offline.
Learn more »
Give kudos to tab author, rate the tab!
1 2 3 4 5
comments
print report bad tab
guest
You may want to rate the tab now too:
select rating
Wanna post a correction for this tab? Suggest correction