Oops, an error
Loading. Please wait.

Heartbeat Bass Tab

version 1
version 1

Whole song

Interactive

8,698 views 3 this week
2 commentsread comments
1 2 3 4 5
accurate
x 4
add to favorites
launch autoscroll
font size
0
reset
guitar tuner
Tab Pro tools
  • play this tab
  • loop segment
  • change instrument
  • show fretboard
  • metronome
×
Best way to learn
"Heartbeat"
Autoscroll
slow
fast
+/-
esc
set tempo
stop
Contributor
Difficulty
novice
Scouting for girls
Heartbeat
Standard tuning

This is my first tab, and im pretty sure its right...

Intro

G--------------------|
D------------5----5--|
A--00--22------------|    Play once and then into verse
E---------33----33---|

Verse

G----------------------|
D----------------------|   x2
A--00--22--------------|
E---------33--33-------|

G------------------------------------|
D------------------------------------|   x2
A--0-0-0-0-2-2-2-2-------------------|
E------------------3-3-3-3-3-3-3-3---|

Chorus

G------------------------------------------------------------|
D------------------------------------------------------------|
A-5-55555---------7-7777777 x2 then E-3333333333333333333333-|
E----------3-33333-------------------------------------------|

Verse

G----------------------|
D----------------------|   x2
A--00--22--------------|
E---------33--33-------|

G------------------------------------|
D------------------------------------|   x2
A--0-0-0-0-2-2-2-2-------------------|
E------------------3-3-3-3-3-3-3-3---|

Chorus

G--------------------------------------------------------|
D--------------------------------------------------------|
A-5-55555---------7-7777777 x2 then E-333333333333333333-|
E----------3-33333---------------------------------------|

Bridge

G--------------|
D--------------|
A--------- X 4-|
E-3-5--2-3-----|

THEN

G------------------|
D------------------| X4
A------------------|
E-3-3-5-5-2-2-3-3--|

Short break then chorus

G--------------------------------------------------------|
D-------------------------- x 1 then E-33333333333333333-|
A-5-55555---------7-7777777------------------------------|
E----------3-33333---------------------------------------|

G---------------------------------------------------------|
D-------------------------- x 2 then E-333333333333333335-|
A-5-55555---------7-7777777-------------------------------|
E----------3-33333----------------------------------------|
comments
print report bad tab
2 comments total.
0 reply
GuitarPezz wrote on June 20 2008, 07:38 pm

yeah mate this really works i used it and it does fit nice job

0 reply
DLB92 wrote on July 15 2008, 08:31 am

Well Done!!
For a first tab that's brilliant! I've seen the official score and from what I can remember this is pretty close to it!!
Well Done Again!!

I want to post or [tab]
guest
You may want to rate the tab now too:
select rating
Please do not post tabs as comments. Select "correction" instead!