Oops, an error
Loading. Please wait.

Heartbeat Tab

version 2
version 2

Whole song

Interactive

6,493 views 1 this week
1 commentread comment
1 2 3 4 5
excellent!
x 3
add to favorites
launch autoscroll
font size
0
reset
how to read this tab
guitar tuner
Tab Pro tools
  • play this tab
  • loop segment
  • change instrument
  • show fretboard
  • metronome
Autoscroll
slow
fast
+/-
esc
set tempo
stop

Heartbeat - Scouting For Girls
I was looking for this song all in tab forum and Shore that there was not one so i made 
for my self.
This may not be perfect but thats the way i play the song please comment and rate this tab.
If you have any questions etc.
E-mail me at: ed_boy_huss@hotmail.co.uk

intro

|-----------------------------|
|-----------------------------|
|---2-2---4-4-----------------|
|---2-2---4-4---5-5---5-5-----|
|---0-0---2-2---5-5---5-5-----|
|---------------3-3---3-3-----|

Am I alone in your heart? Have I hope with your heart?
|----------------------------------------|
|----------------------------------------|
|---2-2---4-4----------------------------|
|---2-2---2-2---5-5---5-5----------------|
|---0-0---2-2---5-5---5-5----------------|
|---------------3-3---3-3----------------|

She's such a teaser, she's such a star. Give me a reason or gimme a chance.
|----------------------------------------|
|----------------------------------------|
|---2-2---4-4----------------------------|
|---2-2---2-2---5-5---5-5----------------|
|---0-0---2-2---5-5---5-5----------------|
|---------------3-3---3-3----------------|

Am I alone in your heart, or am I alone?
|----------------------------------------|
|----------------------------------------|
|---2-2---4-4----------------------------|
|---2-2---2-2---5-5---5-5----------------|
|---0-0---2-2---5-5---5-5----------------|
|---------------3-3---3-3----------------|

It tears me apart.  Am I alone?
|----------------------------------------|
|----------------------------------------|
|---2-2---4-4----------------------------|
|---2-2---2-2---5-5---5-5----------------|
|---0-0---2-2---5-5---5-5----------------|
|---------------3-3---3-3----------------|

Chorus:

Doing all I can do, just to be close to you. Every time that we meet,
I skip a heartbeat.
|----------------------------------------|
|----------------------------------------|
|---7-7---2-2----------------------------|
|---7-7---2-2---5-5---2-2----------------|
|---5-5---0-0---5-5---2-2----------------|
|---------------3-3---0-0----------------|

Always up for a laugh, she's a pain in the arse.Every time that we meet,
I skip a heartbeat.
|----------------------------------------|
|----------------------------------------|
|---7-7---2-2----------------------------|
|---7-7---2-2---5-5---2-2----------------|
|---5-5---0-0---5-5---2-2----------------|
|---------------3-3---0-0----------------|

Verse 2

Give me an evening, or give me a night.
|----------------------------------------|
|----------------------------------------|
|---2-2---4-4----------------------------|
|---2-2---2-2---5-5---5-5----------------|
|---0-0---2-2---5-5---5-5----------------|
|---------------3-3---3-3----------------|

I'll show you the time, of your life.
|----------------------------------------|
|----------------------------------------|
|---2-2---4-4----------------------------|
|---2-2---2-2---5-5---5-5----------------|
|---0-0---2-2---5-5---5-5----------------|
|---------------3-3---3-3----------------|

I'll walk you home safe, from the dark.
|----------------------------------------|
|----------------------------------------|
|---2-2---4-4----------------------------|
|---2-2---2-2---5-5---5-5----------------|
|---0-0---2-2---5-5---5-5----------------|
|---------------3-3---3-3----------------|

I'll give you my jacket, I'll give you my heart.
|----------------------------------------|
|----------------------------------------|
|---2-2---4-4----------------------------|
|---2-2---2-2---5-5---5-5----------------|
|---0-0---2-2---5-5---5-5----------------|
|---------------3-3---3-3----------------|

But she won't come dancing tonight, She's having the time of her life.
Am I alone?
|----------------------------------------|
|----------------------------------------|
|---2-2---4-4----------------------------|
|---2-2---2-2---5-5---5-5----------------|
|---0-0---2-2---5-5---5-5----------------|
|---------------3-3---3-3----------------|


Chorus:

Doing all I can do, just to be close to you. Every time that we meet,
I skip a heartbeat.
|----------------------------------------|
|----------------------------------------|
|---7-7---2-2----------------------------|
|---7-7---2-2---5-5---2-2----------------|
|---5-5---0-0---5-5---2-2----------------|
|---------------3-3---0-0----------------|

Always up for a laugh, she's a pain in the arse.Every time that we meet,
I skip a heartbeat.
|----------------------------------------|
|----------------------------------------|
|---7-7---2-2----------------------------|
|---7-7---2-2---5-5---2-2----------------|
|---5-5---0-0---5-5---2-2----------------|
|---------------3-3---0-0----------------|

Verse 3/Bridge

 I do love,    she does heartbreak.
|----------------------------------------|
|----------------------------------------|
|---7-7---2-2----------------------------|
|---7-7---2-2---3-3---5-5----------------|
|---5-5---0-0---3-3---5-5----------------|
|---------------1-1---3-3----------------|

 I did love,   till she broke my heart.
|----------------------------------------|
|----------------------------------------|
|---7-7---2-2----------------------------|
|---7-7---2-2---3-3---5-5----------------|
|---5-5---0-0---3-3---5-5----------------|
|---------------1-1---3-3----------------|

 I do love,    she does heartbreak.
|----------------------------------------|
|----------------------------------------|
|---7-7---2-2----------------------------|
|---7-7---2-2---3-3---5-5----------------|
|---5-5---0-0---3-3---5-5----------------|
|---------------1-1---3-3----------------|

I did love, till she broke my heart.
|----------------------------------------|
|----------------------------------------|
|---7-7---2-2----------------------------|
|---7-7---2-2---3-3---5-5----------------|
|---5-5---0-0---3-3---5-5----------------|
|---------------1-1---3-3----------------|

I do love, she does heartbreak.
|----------------------------------------|
|----------------------------------------|
|---7-7---2-2----------------------------|
|---7-7---2-2---3-3---5-5----------------|
|---5-5---0-0---3-3---5-5----------------|
|---------------1-1---3-3----------------|

I did love, till she broke my heart.
|----------------------------------------|
|----------------------------------------|
|---7-7---2-2----------------------------|
|---7-7---2-2---3-3---5-5----------------|
|---5-5---0-0---3-3---5-5----------------|
|---------------1-1---3-3----------------|

I do love, she does heartbreak.
|----------------------------------------|
|----------------------------------------|
|---7-7---2-2----------------------------|
|---7-7---2-2---3-3---5-5----------------|
|---5-5---0-0---3-3---5-5----------------|
|---------------1-1---3-3----------------|

I did love, till she broke my heart.
|----------------------------------------|
|----------------------------------------|
|---7-7---2-2----------------------------|
|---7-7---2-2---3-3---5-5----------------|
|---5-5---0-0---3-3---5-5----------------|
|---------------1-1---3-3----------------|

Chorus

Doing all I can do, just to be close to you. Every time that we meet,
I skip a heartbeat.
|----------------------------------------|
|----------------------------------------|
|---7-7---2-2----------------------------|
|---7-7---2-2---5-5---2-2----------------|
|---5-5---0-0---5-5---2-2----------------|
|---------------3-3---0-0----------------|

Always up for a laugh, she's a pain in the arse.Every time that we meet,
I skip a heartbeat.
|----------------------------------------|
|----------------------------------------|
|---7-7---2-2----------------------------|
|---7-7---2-2---5-5---2-2----------------|
|---5-5---0-0---5-5---2-2----------------|
|---------------3-3---0-0----------------|

I skip a heartbeat for you.
|----------------------------------------|
|----------------------------------------|
|---7-7---2-2----------------------------|
|---7-7---2-2---3-3---5-5----------------|
|---5-5---0-0---3-3---5-5----------------|
|---------------1-1---3-3----------------|

Chorus:

Doing all I can do, just to be close to you. Every time that we meet,
I skip a heartbeat.
|----------------------------------------|
|----------------------------------------|
|---7-7---2-2----------------------------|
|---7-7---2-2---5-5---2-2----------------|
|---5-5---0-0---5-5---2-2----------------|
|---------------3-3---0-0----------------|

Always up for a laugh, she's a pain in the arse.Every time that we meet,
I skip a heartbeat.
|----------------------------------------|
|----------------------------------------|
|---7-7---2-2----------------------------|
|---7-7---2-2---5-5---2-2----------------|
|---5-5---0-0---5-5---2-2----------------|
|---------------3-3---0-0----------------|


I skip a heartbeat for you.
|----------------------------------------|
|----------------------------------------|
|---7-7---2-2----------------------------|
|---7-7---2-2---3-3---5-5----------------|
|---5-5---0-0---3-3---5-5----------------|
|---------------1-1---3-3----------------|


Ed
comments
We did not receive enough feedback on this tab! Please rate:
print report bad tab
1 2 3 4 5
1 comment total.
+2 reply
edwardhusselbee wrote on February 6 2009, 11:50 am

It Good I just found it hard to work the time out

I want to post or [tab]
guest
You may want to rate the tab now too:
select rating
Please do not post tabs as comments. Select "correction" instead!