Oops, an error
Loading. Please wait.

James Bond Bass Tab

8,965 views 9 this week
no commentswrite comment
1 2 3 4 5
accurate
x 4
add to favorites
launch autoscroll
font size
0
reset
guitar tuner
Autoscroll
slow
fast
+/-
esc
set tempo
stop
Help us to improve Ultimate-Guitar.com Take our survey!
×
Author
Difficulty
intermediate
you begin playing after a few seconds

verse/intro

g|-----------------------------------------------------------|
d|-----------------------------------------------------------|
a|------------8-------7-------5------------------------------|
e|1-3-4-5-6-----6-5-----5-3-----3-1--------------------------|


chorus/interlude

g|------------------------------------------------------------|
d|------------------------------------------------------------|
a|-----(6h8---------------------------------------------------|
e|5h6-------6-5)--6-6-6-6-6-6-6-6-5-5-5-5-5-5-5-5-3-3-3-3-3-3-|


g|-----------------------------------------------------------|
d|-----------------------------------------------------------|
a|-----------------------------------------------------------|
e|-3-3-1-1-1-1-1-3-4-5-6-------------------------------------|

    you repeat everything after the ()

this is my first tab and i'm quit sure it's correct. play it love it rate it


zhqtever
13/4/08
Suggest correction
comments
print report bad tab
guest
You may want to rate the tab now too:
select rating
Please do not post tabs as comments. Select "correction" instead!