Oops, an error
Loading. Please wait.

James Bond Tab

34,670 views 6 this week
5 commentsread comments
1 2 3 4 5
accurate
x 5
add to favorites
launch autoscroll
font size
0
reset
how to read this tab
guitar tuner
Autoscroll
slow
fast
+/-
esc
set tempo
stop
Help us to improve Ultimate-Guitar.com Take our survey!
×
Author
Difficulty
novice
-------------------------------------------------------------------------------
                             James Bond - Scouting For Girls
-------------------------------------------------------------------------------
Tabbed by: Elliott
Email: I don't do emails, myspace me at: myspace.com/elliottism


Played in barre chords due to it played in piano playing normal chords doesn't really sound right.

Tuning: Standard


Intro/Verse:

  "I've seen you on the screen..."
        A#            A                G          F
e|---------------------------------------------------------------------------|
B|---------------------------------------------------------------------------|
G|---------------------------------------------------------------------------|
D|---8-88---8-88---7-77---7-77---5-55---5-55---3-33---3-3--------------------|
A|---8-88---8-88---7-77---7-77---5-55---5-55---3-33---3-3--------------------|
E|-6-6-66-6-6-66-5-5-55-5-5-55-3-3-33-3-3-33-1-1-11-1-1-1--------------------|


If you want to be a bit cheesy add this in after the 'F'
D|------------|
A|------------|
E|-1/3/5------|

Chorus:

  "I wish I was james bond"
e|-----------------------------------|
B|-----------------------------------|
G|-------8888-8888-10101010-10101010-|
D|-8~-7~-8888-8888-10101010-10101010-|
A|-8~-7~-6666-6666-8-8-8-8--8-8-8-8--|
E|-6~-5~-----------------------------|

"I wish I was James.." |"kissing all the girls..."
e|---------------------|-------------------------------|
B|---------------------|-------------------------------|
G|---------------------|-8888-8888-10101010-10101010---|
D|-8888-8888-7777-7777-|-8888-8888-10101010-10101010---|
A|-8888-8888-7777-7777-|-6666-6666-8-8-8-8--8-8-8-8----|
E|-6666-6666-5555-5555-|-------------------------------|

Middle:

"Ive A licence..  x3"
e|---------------------------------------------|
B|---------------------------------------------|
G|--8-8-8-8--8-8-8-8--12-12-12-12--10-10-10-10-|
D|--8-8-8-8--8-8-8-8--12-12-12-12--10-10-10-10-|
A|--6-6-6-6--6-6-6-6--10-10-10-10--8--8--8--8--|
E|---------------------------------------------|


Outro:

"I wanted to be you.."
e|---------------------|-------------------------------|
B|---------------------|-------------------------------|
G|---------------------|-8888-8888-10101010-10101010---|
D|-8888-8888-7777-7777-|-8888-8888-10101010-10101010---|
A|-8888-8888-7777-7777-|-6666-6666-8-8-8-8--8-8-8-8----|
E|-6666-6666-5555-5555-|-------------------------------|


Theres a little change to the end chorus at the start, just hold the chord.
Nothing worth spending 5 mins writing.

Happy Scouting! (haha)

| /  slide up
| \  slide down
| h  hammer-on
| p  pull-off
| ~  vibrato
| +  harmonic
| x  Mute note
===============================================================================
Suggest correction new What's this?
You can suggest a correction to this tab. Community and Mods will review your correction and vote to approve or reject it.
comments
print report bad tab
5 comments total. Showing first comments.
0 reply
username4 25 wrote on March 21 2008, 05:26 am

brilllllllllllllll!!!!!!!!!!!!!!!!sfg are the best but mcfly are quite a bit better

+1 reply
TheHoxtonHeroes 79 wrote on December 6 2008, 11:34 am

this is really good... thank you so much for tabbing this in a way that works for guitar and is easy to change to piano. 5 stars!

+1 reply
BobaloC 218 wrote on April 6 2009, 01:29 pm

not perfect but enough to work from 4*

guest
You may want to rate the tab now too:
select rating
Please do not post tabs as comments. Select "correction" instead!