Oops, an error
Loading. Please wait.

Scouting For Girls Bass Tab

832 views 1 this week
1 commentread comment
1 2 3 4 5
please rate
add to favorites
launch autoscroll
font size
0
reset
guitar tuner
Autoscroll
slow
fast
+/-
esc
set tempo
stop
Help us to improve Ultimate-Guitar.com Take our survey!
×
Difficulty
novice
-------------------------------------------------------------------------------
			     Scouting for Girls - Scouting for Girls
-------------------------------------------------------------------------------



Tuning: Standard

Intro
G|-------------------------------------|
D|-------------------------------------|
A|-33333333----------00000000----------|
E|----------33333333----------33333333-|

Verse
G|-------------------------------------|
D|-------------------------------------|
A|-33333333----------00000000----------|  x2
E|----------33333333----------33333333-|

Chorus
G|-----------------|
D|-----------------|
A|-----00----------| x2
E|-11------33---33-|

G|--------------------|
D|--------------------|
A|------3333----------|   x2
E|-1111------33333333-|

Verse x2

Chorus 

Bridge
G|---------------|
D|---------------|
A|-----33--------|   x2
E|-11------33-33-|

Verse x2

G|-------------|
D|-------------|
A|----0--------|
E|-1-----3---3-|

G|------------------|
D|------------------|
A|-----00-----------|
E|-11-------33---33-|

G|--------------------|
D|--------------------|
A|------3333----------|   x6
E|-1111------33333333-|

G|---------|
D|---------|
A|---3-----|
E|-1---3-3-|

G|---------|
D|---------|
A|---3---3-|
E|-1---3---|

--------------------------
| /  slide up
| \  slide down
| h  hammer-on
| p  pull-off
| ~  vibrato
| +  harmonic
| x  Mute note
===============================================================================
Suggest correction
Give kudos to tab author, rate the tab!
1 2 3 4 5
comments
print report bad tab
1 comment total.
0 reply
monthebiffy10 10 wrote on June 3 2010, 06:14 am

this is a 'this ain't a love song' bass tab, btw

guest
You may want to rate the tab now too:
select rating
Please do not post tabs as comments. Select "correction" instead!