Oops, an error
Loading. Please wait.

Shes So Lovely Bass Tab

version 1
version 1

Whole song

11,806 views 18 this week
2 commentsread comments
1 2 3 4 5
excellent!
x 3
add to favorites
launch autoscroll
font size
0
reset
guitar tuner
Tab Pro tools
  • play this tab
  • loop segment
  • change instrument
  • show fretboard
  • metronome
×
Best way to learn
"Shes So Lovely"
Autoscroll
slow
fast
+/-
esc
set tempo
stop
Difficulty
novice
-------------------------------------------------------------------------------
			     Scouting for Girls - She's So Lovely
-------------------------------------------------------------------------------

Tabbed By : Elliott  
e-mail: Mail my myspace. I never check my emails - myspace.com/elliottism

Tuning: Standard tuning

Intro/Verse:

G|-------------------|
D|-----3-3-----5-5---|
A|-3-3-----5-5-------|  (repeat how many ever times)
E|-------------------|

There is a small mini riff played  (1:16 for example) which goes..

Including the verse before it

G|-----------------------|
D|-----3-3-----5-3-------|
A|-3-3-----5-5-----5-4---|   unsure of the (4) doesn't matter that much 
E|-----------------------|                   'cause its only a split second..


End on a:

G|----|
D|----|
A|-3~-|
E|----|


Chorus

"she's so lovely, she's so.."
G|---------------------------|
D|---------33333333--------5-|
A|-33333333--------55555555--|
E|---------------------------|

Verse 2 (slight difference) to verse 1

"your funny, your yummy"
G|--------------------------|
D|-----3-3---------55555555-|
A|-3-3-----55555555---------|
E|--------------------------|

Middle bit?

"I don't know.. I don't know"
G|----------------|
D|--3~-2~-0~------|
A|-----------3~---|
E|----------------|

If you want to play the piano slide... I'd probably play

G|--------|
D|--------|
A|-3/19\3-|
E|--------|

| /  slide up
| \  slide down
| h  hammer-on
| p  pull-off
| ~  vibrato
| +  harmonic
| x  Mute note
===============================================================================
comments
We did not receive enough feedback on this tab! Please rate:
print report bad tab
1 2 3 4 5
2 comments total.
0 reply
ChikiChikiwa wrote on September 6 2007, 03:36 pm

The Author here..

The second verse.. The D (3rd string 5) is only played once first time round..

My bad. :)

0 reply
markus-37 wrote on September 14 2008, 03:26 am

Hi, i think that mini riff goes like this


G|---------------------------|
D|-----3-3-----5-5-3-0-------|
A|-3-3-----5-5---------------|
E|---------------------------|

and i think that middle bit goes like this

G|----------------------------------|
D|---------33333333--------55555555-|
A|-33333333--------55555555---------|
E|----------------------------------|

good tab =]

I want to post or [tab]
guest
You may want to rate the tab now too:
select rating
Please do not post tabs as comments. Select "correction" instead!