Oops, an error
Loading. Please wait.

This Aint A Love Song Bass Tab

4,678 views 3 this week
no commentswrite comment
1 2 3 4 5
1 last vote to show rating
add to favorites
launch autoscroll
font size
0
reset
guitar tuner
Autoscroll
slow
fast
+/-
esc
set tempo
stop
Help us to improve Ultimate-Guitar.com Take our survey!
×
Difficulty
novice
i think this is right but it's just a guess from what the guitar chords say so 
might not be totally
 correct and this is my first UG tab ever but that's hardly an excuse. thanks, Joel.

Intro
G--------------------------------------------------------------------|
D--------------------------------------------------------------------|
A----3-3-3-3-3-3-3-3-----------------0-0-0-0-0-0-0-0-----------------|
E--------------------3-3-3-3-3-3-3-3-----------------1-1-1-1-1-1-1-1-|

Verse
G--------------------------------------------------------------------|
D--------------------------------------------------------------------|
A----3-3-3-3-3-3-3-3-----------------0-0-0-0-0-0-0-0-----------------|
E--------------------3-3-3-3-3-3-3-3-----------------1-1-1-1-1-1-1-1-|

G--------------------------------------------------------------------|
D--------------------------------------------------------------------|
A----3-3-3-3-3-3-3-3-----------------0-0-0-0-0-0-0-0-----------------|
E--------------------3-3-3-3-3-3-3-3-----------------1-1-1-1-1-1-1-1-|

G--------------------|
D--------------------|
A--------------------|
E----1-1-1-1-1-1-1-1-|

Chorus
G-------------------------------------------------------------------|
D-------------------------------------------------------------------|
A------------3-3-----0-0----------------------3-3-----0-0-----------|
E-----1-1---------------------3-3-----1-1--------------------3-3----|

G--------------------------------------------------------------------|
D--------------------------------------------------------------------|
A------------3-3-3-3-0-0-0-0-----------------3-3-3-3-0-0-0-0---------|
E----1-1-1-1-----------------3-3-3-3-1-1-1-1-----------------3-3-3-3-|

Repeat Verse and Chorus

Bridge
G-------------------------------------------------------------------|
D-------------------------------------------------------------------|
A------------3-3-----0-0----------------------3-3-----0-0-----------|
E-----1-1---------------------3-3-----1-1--------------------3-3----|

G--------------------------------------------------------------------|
D--------------------------------------------------------------------|
A------------3-3-3-3-0-0-0-0-----------------3-3-3-3-0-0-0-0---------|
E----1-1-1-1-----------------3-3-3-3-1-1-1-1-----------------3-3-3-3-|

Chorus
G-------------------------------------------------------------------|
D-------------------------------------------------------------------|
A------------3-3-----0-0----------------------3-3-----0-0-----------|
E-----1-1---------------------3-3-----1-1--------------------3-3----|

G--------------------------------------------------------------------|
D--------------------------------------------------------------------|
A------------3-3-3-3-0-0-0-0-----------------3-3-3-3-0-0-0-0---------|
E----1-1-1-1-----------------3-3-3-3-1-1-1-1-----------------3-3-3-3-|

Outro
G-------------------------------------------------------------------|
D-------------------------------------------------------------------|
A------------3-3-----0-0----------------------3-3-----0-0-----------|
E-----1-1---------------------3-3-----1-1--------------------3-3----|

G-------------------------------------------------------------------|
D-------------------------------------------------------------------|
A------------3-3-----0-0----------------------3-3-----0-0-----------|
E-----1-1---------------------3-3-----1-1--------------------3-3----|

G-------------------------------------------------------------------|
D-------------------------------------------------------------------|
A------------3-3-----0-0----------------------3-3-----0-0-----------|
E-----1-1---------------------3-3-----1-1--------------------3-3----|

G-------------------------------------------------------------------|
D-------------------------------------------------------------------|
A------------3-3-----0-0----------------------3-3-----0-0-----------|
E-----1-1---------------------3-3-----1-1--------------------3-3----|

G-------------------------------------------------------------------|
D-------------------------------------------------------------------|
A------------3-------0-----------------------3-------0--------------|
E----1-----------------------3-------1-----------------------3------|
Suggest correction
Give kudos to tab author, rate the tab!
1 2 3 4 5
comments
print report bad tab
guest
You may want to rate the tab now too:
select rating
Wanna post a correction for this tab? Suggest correction