Oops, an error
Loading. Please wait.

Bet You Never Thought tab

by Scream
94 views 1 this week
no commentswrite comment
1 2 3 4 5
3 more votes to show rating
add to favorites
×
Save as Personal and add changes to this tab that will be seen only by you. Learn more ›
×
You can save this tab as Personal to edit and correct it or add notes. All changes will be seen only by you. Learn more »
launch autoscroll
font size
0
reset
how to read this tab
guitar tuner
edit
Autoscroll
slow
fast
+/-
esc
set tempo
stop
Author
-------------------------------------------------------------------------------
                      Bet You Never Thought - Scream
-------------------------------------------------------------------------------
Tabbed by: Hugo Svensson
E-mail: hugosvensson7@gmail.com

Tuning: Standard

If you only want the raw chords and lyrics you can find the other version on my profile.


0:00-0:11 Intro:
e|---------------------------------------------------------------------------|
B|---------------------------------------------------------------------------|
G|-------7-7-7-7--6-6-6-6-6-6-6-6----------------6-6-6-6-6-6-6-6-------------| 
D|-------7-7-7-7--7-7-7-7-7-7-7-7--11-11-11-11---7-7-7-7-7-7-7-7-------------| X2
A|-------5-5-5-5--7-7-7-7-7-7-7-7--11-11-11-11---7-7-7-7-7-7-7-7-------------|
E|----------------5-5-5-5-5-5-5-5--9--9--9--9----5-5-5-5-5-5-5-5-------------|
         D D D D  A A A A A A A A  C# C# C# C#   A A A A A A A A

0:12-0:33 Verse
e|---------------------------------------------------------------------------|
B|---------------------------------------------------------------------------|
G|-------7-7-7-7--6-6-6-6-6-6-6-6----------------6-6-6-6-6-6-6-6-------------| 
D|-------7-7-7-7--7-7-7-7-7-7-7-7--11-11-11-11---7-7-7-7-7-7-7-7-------------| X4
A|-------5-5-5-5--7-7-7-7-7-7-7-7--11-11-11-11---7-7-7-7-7-7-7-7-------------|
E|----------------5-5-5-5-5-5-5-5--9--9--9--9----5-5-5-5-5-5-5-5-------------|
         D D D D  A A A A A A A A  C# C# C# C#   A A A A A A A A

0:33-1:07 Pre-Chorus
e|---------------------------------------------------------------------------|
B|---------------------------------------------------------------------------|
G|--6--4------------9------6-------------------------------------------------|
D|--7--5--5--11--9--9---11-7-------------------------------------------------| X2
A|--7--5--5--11--9--7---11-7-------------------------------------------------|
E|--5--3--2--9---7------9--5-------------------------------------------------|
    A  G  F# C#  B  E   C# A
e|---------------------------------------------------------------------------|
B|---------------------------------------------------------------------------|
G|-------7-7-7-7--6-6-6-6-6-6-6-6----------------6-6-6-6-6-6-6-6-------------| 
D|-------7-7-7-7--7-7-7-7-7-7-7-7--11-11-11-11---7-7-7-7-7-7-7-7-------------| X2
A|-------5-5-5-5--7-7-7-7-7-7-7-7--11-11-11-11---7-7-7-7-7-7-7-7-------------|
E|----------------5-5-5-5-5-5-5-5--9--9--9--9----5-5-5-5-5-5-5-5-------------|
         D D D D  A A A A A A A A  C# C# C# C#   A A A A A A A A

1:07-1:29 Chorus
e|---------------------------------------------------------------------------|
B|---------------------------------------------------------------------------|
G|-------7-7-7-7--6-6-6-6-6-6-6-6----------------6-6-6-6-6-6-6-6-------------| 
D|-------7-7-7-7--7-7-7-7-7-7-7-7--11-11-11-11---7-7-7-7-7-7-7-7-------------| X4
A|-------5-5-5-5--7-7-7-7-7-7-7-7--11-11-11-11---7-7-7-7-7-7-7-7-------------|
E|----------------5-5-5-5-5-5-5-5--9--9--9--9----5-5-5-5-5-5-5-5-------------|
         D D D D  A A A A A A A A  C# C# C# C#   A A A A A A A A

1:29-2:00 Pre-Chorus
e|---------------------------------------------------------------------------|
B|---------------------------------------------------------------------------|
G|--6--4------------9------6-------------------------------------------------|
D|--7--5--5--11--9--9---11-7-------------------------------------------------| X2
A|--7--5--5--11--9--7---11-7-------------------------------------------------|
E|--5--3--2--9---7------9--5-------------------------------------------------|
    A  G  F# C#  B  E   C# A
e|---------------------------------------------------------------------------|
B|---------------------------------------------------------------------------|
G|--6-6-6-6-6-6-6-6----------------------------------------------------------|
D|--7-7-7-7-7-7-7-7--9-9-9-9-9-9-9-9-----------------------------------------| X4
A|--7-7-7-7-7-7-7-7--9-9-9-9-9-9-9-9-----------------------------------------|
E|--5-5-5-5-5-5-5-5--7-7-7-7-7-7-7-7-----------------------------------------|
    A A A A A A A A  B B B B B B B B

2:00-2:30 Solo
e|---------------------------------------------------------------------------|
B|---------------------------------------------------------------------------|
G|--4-4-4-4-4-4-4-4-4-4-4-4-4-4-4-4--6---------------------------------------|
D|--5-5-5-5-5-5-5-5-5-5-5-5-5-5-5-5--7---------------------------------------| X2
A|--5-5-5-5-5-5-5-5-5-5-5-5-5-5-5-5--7---------------------------------------|
E|--3-3-3-3-3-3-3-3-3-3-3-3-3-3-3-3--5---------------------------------------|
    G G G G G G G G G G G G G G G G  A
e|---------------------------------------------------------------------------|
B|---------------------------------------------------------------------------|
G|--4-4-4-4-4-4-4-4-4-4-4-4-4-4-4-4--6-6-6-6-6-6-6-6-6-6-6-6-6-6-6-6---------|
D|--5-5-5-5-5-5-5-5-5-5-5-5-5-5-5-5--7-7-7-7-7-7-7-7-7-7-7-7-7-7-7-7---------| X3
A|--5-5-5-5-5-5-5-5-5-5-5-5-5-5-5-5--7-7-7-7-7-7-7-7-7-7-7-7-7-7-7-7---------|
E|--3-3-3-3-3-3-3-3-3-3-3-3-3-3-3-3--5-5-5-5-5-5-5-5-5-5-5-5-5-5-5-5---------|
    G G G G G G G G G G G G G G G G  A A A A A A A A A A A A A A A A
e|---------------------------------------------------------------------------|
B|---------------------------------------------------------------------------|
G|--4-4-4-4-4-4-4-4-4-4-4-4-4-4-4-4------------------------------------------|
D|--5-5-5-5-5-5-5-5-5-5-5-5-5-5-5-5------------------------------------------|
A|--5-5-5-5-5-5-5-5-5-5-5-5-5-5-5-5------------------------------------------|
E|--3-3-3-3-3-3-3-3-3-3-3-3-3-3-3-3------------------------------------------|
    G G G G G G G G G G G G G G G G

2:30-2:52 Outro
e|---------------------------------------------------------------------------|
B|---------------------------------------------------------------------------|
G|--6-6-6-6-6-6-6-6----------------------------------------------------------|
D|--7-7-7-7-7-7-7-7--9-9-9-9-9-9-9-9-----------------------------------------| X8
A|--7-7-7-7-7-7-7-7--9-9-9-9-9-9-9-9-----------------------------------------|
E|--5-5-5-5-5-5-5-5--7-7-7-7-7-7-7-7-----------------------------------------|
    A A A A A A A A  B B B B B B B B
Suggest correction
Creating personal tab
Creating personal tab
You can edit any tab online and save it as your Personal.

You can edit, replace or remove any tab part or add personal notes – all changes will be seen only by you.

Personal tabs can be accessed anytime from any device, even offline.
Learn more »
Give kudos to tab author, rate the tab!
1 2 3 4 5
comments
print report bad tab
guest
You may want to rate the tab now too:
select rating
Wanna post a correction for this tab? Suggest correction