Oops, an error
Loading. Please wait.

Outlaw Bass Tab

version 1
version 1

Whole song

Interactive

88 views 1 this week
no commentswrite comment
1 2 3 4 5
2 more votes to show rating
add to favorites
launch autoscroll
font size
0
reset
guitar tuner
Autoscroll
slow
fast
+/-
esc
set tempo
stop
Help us to improve Ultimate-Guitar.com Take our survey!
×
Author
Difficulty
Tuning
intermediate
D# G# C# F# A# D#
-------------------------------------------------------------------------------
                             OUTLAW - The Scream
-------------------------------------------------------------------------------


Tabbed By : Isaias Gartcia (TexasFury)

Tuning: Half-step down


      Intro                                                   
      E  E  E  E  E  E  E  E     E  E  E  E  E  E  E  E   
F#||--------------------------|--------------------------|
C#||--------------------------|--------------------------|
G#||--------------------------|--------------------------|
D#||--3--3--3--3--3--3--3--3--|--3--3--3--3--3--3--3--3--|


  E  E  E  E  E  E  E  E     E  E  E  E  E  E  E  E   
--------------------------|--------------------------|
--------------------------|--------------------------|
--------------------------|--------------------------|
--3--3--3--3--3--3--3--3--|--3--3--3--3--3--3--3--3--|


  E  E  E  E  E  E  E  E     E  E  E  E  E  E  E  E   
--------------------------|--------------------------|
--------------------------|--------------------------|
--------------------------|--------------------------|
--3--3--3--3--3--3--3--3--|--3--3--3--3--3--3--3--3--|


  E  E  E  E  E  E  E  E     E  E  E  E  E  E  E  E   
--------------------------|--------------------------||
--------------------------|--------------------------||
--------------------------|--------------------------||
--3--3--3--3--3--3--3--3--|--3--3--3--3--3--0--1--0--||


  Verse 1                                                  
  E  E  E  E  E  E  E  E     E  E  E  E  E  E  E  E   
--------------------------|--------------------------|
--------------------------|--------------------------|
--3--3--3--3--3--3--3--3--|--3--3--3--3--3--3--3--3--|
--------------------------|--------------------------|


  E  E  E  E  E  E  E  E     E  E  E  E  E  E  E  E   
--------------------------|--------------------------|
--------------------------|--------------------------|
--3--3--3--3--3--3--3--3--|--3--3--3--3--3-----------|
--------------------------|-----------------0--1--2--|


  E  E  E  E  E  E  E  E     E  E  E  E  E  E  E  E   
--------------------------|--------------------------|
--------------------------|--------------------------|
--------------------------|--------------------------|
--3--3--3--3--3--3--3--3--|--3--3--3--3--3--3--3--3--|


  E  E  E  E  E  E  E  E     E  E  E  E  E  E  E  E   
--------------------------|--------------------------|
--------------------------|--------------------------|
--------------------------|--------------------------|
--3--3--3--3--3--3--3--3--|--3--3--3--3--3--0--1--0--|


  E  E  E  E  E  E  E  E     E  E  E  E  E  E  E  E   
--------------------------|--------------------------|
--------------------------|--------------------------|
--3--3--3--3--3--3--3--3--|--3--3--3--3--3--3--3--3--|
--------------------------|--------------------------|


  E  E  E  E  E  E  E  E     E  E  E  E  E  E  E  E   
--------------------------|--------------------------|
--------------------------|--------------------------|
--3--3--3--3--3--3--3--3--|--3--3--3--3--3-----------|
--------------------------|-----------------0--1--2--|


  E  E  E  E  E  E  E  E     E  E  E  E  E  E  E  E   
--------------------------|--------------------------|
--------------------------|--------------------------|
--------------------------|--------------------------|
--3--3--3--3--3--3--3--3--|--3--3--3--3--3--3--3--3--|


  E  E  E  E  E  E  E  E     E  E  E  E  E  E  E  E   
--------------------------|--------------------------|
--------------------------|--------------------------|
--------------------------|--------------------------|
--3--3--3--3--3--3--3--3--|--3--3--3--3--3--0--3--3--|


  E  E  E  E  E  E  E  E     E  E  E  E  E  E  E  E   
--------------------------|--------------------------|
--------------------------|--------------------------|
--------------------------|--3--3--3--3--3--3--3--2--|
--1--1--1--1--1--1--1--1--|--------------------------|


  E  E  E  E  E  E  E  E     E  E  E  E  E  E  E  E   
--------------------------|--------------------------||
--------------------------|--------------------------||
--1--1--1--1--1--1--1--1--|--3--3--3--3--3-----------||
--------------------------|-----------------0--1--2--||


  Chorus 1                                                  
  E  E  E  E  E  E  E  E     E  E  E  E  E  E  E  E   
--------------------------|--------------------------|
--------------------------|--------------------------|
--------------------------|--------------3--3--3--3--|
--3--3--3--3--3--3--3--3--|--3--3--3--3--------------|


  E  E  E  E  E  E  E  E     E  E  E  E  E  E  E  E   
--------------------------|--------------------------|
--------------------------|--------------------------|
--1--1--1--1--1--1--1--2--|--3--3--3--3--3-----------|
--------------------------|-----------------0--1--2--|


  E  E  E  E  E  E  E  E     E  E  E  E  E  E  E  E   
--------------------------|--------------------------|
--------------------------|--------------------------|
--------------------------|--------------3--3--3--3--|
--3--3--3--3--3--3--3--3--|--3--3--3--3--------------|


  E  E  E  E  E  E  E  E     E  E  E  E  E  E  E  E   
--------------------------|--------------------------|
--------------------------|--------------------------|
--1--1--1--1--1--1--1--2--|--3--3--3--3--3-----------|
--------------------------|-----------------0--1--2--|


  E  E  E  E  E  E  E  E     E  E  E  E  E  E  E  E   
--------------------------|--------------------------|
--------------------------|--------------------------|
--------------------------|--------------------------|
--3--3--3--3--3--3--3--3--|--3--3--3--3--3--3--3--3--|


  E  E  E  E  E  E  E  E     E  E  E  E  E  E  E  E   
--------------------------|--------------------------||
--------------------------|--------------------------||
--------------------------|--------------------------||
--3--3--3--3--3--3--3--3--|--3--3--3--3--3--0--1--0--||


  Verse 2                                                  
  E  E  E  E  E  E  E  E     E  E  E  E  E  E  E  E   
--------------------------|--------------------------|
--------------------------|--------------------------|
--3--3--3--3--3--3--3--3--|--3--3--3--3--3--3--3--3--|
--------------------------|--------------------------|


  E  E  E  E  E  E  E  E     E  E  E  E  E  E  E  E   
--------------------------|--------------------------|
--------------------------|--------------------------|
--3--3--3--3--3--3--3--3--|--3--3--3--3--3-----------|
--------------------------|-----------------0--1--2--|


  E  E  E  E  E  E  E  E     E  E  E  E  E  E  E  E   
--------------------------|--------------------------|
--------------------------|--------------------------|
--------------------------|--------------------------|
--3--3--3--3--3--3--3--3--|--3--3--3--3--3--3--3--3--|


  E  E  E  E  E  E  E  E     E  E  E  E  E  E  E  E   
--------------------------|--------------------------|
--------------------------|--------------------------|
--------------------------|--------------------------|
--3--3--3--3--3--3--3--3--|--3--3--3--3--3--0--1--0--|


  E  E  E  E  E  E  E  E     E  E  E  E  E  E  E  E   
--------------------------|--------------------------|
--------------------------|--------------------------|
--3--3--3--3--3--3--3--3--|--3--3--3--3--3--3--3--3--|
--------------------------|--------------------------|


  E  E  E  E  E  E  E  E     E  E  E  E  E  E  E  E   
--------------------------|--------------------------|
--------------------------|--------------------------|
--3--3--3--3--3--3--3--3--|--3--3--3--3--3-----------|
--------------------------|-----------------0--1--2--|


  E  E  E  E  E  E  E  E     E  E  E  E  E  E  E  E   
--------------------------|--------------------------|
--------------------------|--------------------------|
--------------------------|--------------------------|
--3--3--3--3--3--3--3--3--|--3--3--3--3--3--3--3--3--|


  E  E  E  E  E  E  E  E     E  E  E  E  E  E  E  E   
--------------------------|--------------------------|
--------------------------|--------------------------|
--------------------------|--------------------------|
--3--3--3--3--3--3--3--3--|--3--3--3--3--3--0--3--2--|


  E  E  E  E  E  E  E  E     E  E  E  E  E  E  E  E   
--------------------------|--------------------------|
--------------------------|--------------------------|
--------------------------|--3--3--3--3--3--3--3--2--|
--1--1--1--1--1--1--1--1--|--------------------------|


  E  E  E  E  E  E  E  E     E  E  E  E  E  E  E  E   
--------------------------|--------------------------||
--------------------------|--------------------------||
--1--1--1--1--1--1--1--1--|--3--3--3--3--3-----------||
--------------------------|-----------------0--1--2--||


  Chorus 2                                                  
  E  E  E  E  E  E  E  E     E  E  E  E  E  E  E  E   
--------------------------|--------------------------|
--------------------------|--------------------------|
--------------------------|--------------3--3--3--3--|
--3--3--3--3--3--3--3--3--|--3--3--3--3--------------|


  E  E  E  E  E  E  E  E     E  E  E  E  E  E  E  E   
--------------------------|--------------------------|
--------------------------|--------------------------|
--1--1--1--1--1--1--1--2--|--3--3--3--3--3-----------|
--------------------------|-----------------0--1--2--|


  E  E  E  E  E  E  E  E     E  E  E  E  E  E  E  E     E  E  E  E  E  E  Q     
--------------------------|--------------------------|-------------------------|
--------------------------|--------------------------|-------------------------|
--------------------------|--------------3--3--3--3--|--1--1--1--1--1--1--1----|
--3--3--3--3--3--3--3--3--|--3--3--3--3--------------|-------------------------|


                                           Guitar Solo                   
  W                   W                    E  E  H.            
-------------------|-------------------||---------------------|
-------------------|-------------------||---------------------|
--3----------------|--L----------------||---------------------|
-------------------|-------------------||--1--3--3------------|


  H         H           E  E  Q    Q    Q       E  E  E  E  E  E  Q     
---------------------|-----------------------|-------------------------|
---------------------|-----------------------|-------------------------|
---------------------|------------------1----|--L--1--1--1--0----------|
--L\-----------------|--1--3--L--------------|-----------------1--L----|


  E  E  H.              H         H           E  E  Q    Q    Q     
---------------------|---------------------|-----------------------|
---------------------|---------------------|-----------------------|
---------------------|---------------------|------------------1----|
--1--3--3------------|--L\-----------------|--1--3--L----3---------|


  E  E  E  E  E  E  E  E     E   E  E  E  E  E  E  E   
--------------------------|---------------------------|
--------------------------|---------------------------|
--L--1--1--1--1--1--1--1--|--1h--3--3--3--3--3--3--3--|
--------------------------|---------------------------|


  E   E  E  E  E  E  E  E     E   E  E  E  E  E  E  E   
---------------------------|---------------------------|
---------------------------|---------------------------|
--1h--3--3--3--3--3--3--3--|--1h--3--3--3--3--3--3--3--|
---------------------------|---------------------------|


  E  E  E  E  Q    E  E     E  E  E  E  E  E  E  E     E  E  E  E  E  E  E  E   
-------------------------|--------------------------|--------------------------|
-------------------------|--------------------------|--------------------------|
--1--3--3--1--3----3--3--|--------------------------|--------------------------|
-------------------------|--1--3--3--3--3--3--3--3--|--1--3--3--3--3--3--3--3--|


  E  E  E  E  E  E  E  E     E  E  E  E  E  E  E  E   
--------------------------|--------------------------|
--------------------------|--------------------------|
--------------------------|--------------------------|
--1--3--3--3--3--3--3--3--|--1--3--3--1--3--1--3--1--|


  E  E  E  E  E  E  E  E     E  E  E  E  E  E  E  E     Q    E  E  E  E  Q     
--------------------------|--------------------------|------------------------|
--------------------------|--------------------------|------------------------|
--5--5--5--5--5--5--5--5--|--5--5--5--5--5--5--5--5--|--3----1--3-----1--3----|
--------------------------|--------------------------|------------------------|


                              Chorus 3                       
  E  E  E  E  E  E  E  E      E  E  E  E  E  E  E  E   
--------------------------||--------------------------|
--------------------------||--------------------------|
--1--3-----1--3-----------||--------------------------|
-----------------0--1--2--||--3--3--3--3--3--3--3--3--|


  E  E  E  E  E  E  E  E     E  E  E  E  E  E  E  E   
--------------------------|--------------------------|
--------------------------|--------------------------|
--------------3--3--3--3--|--1--1--1--1--1--1--1--2--|
--3--3--3--3--------------|--------------------------|


  E  E  E  E  E  E  E  E     E  E  E  E  E  E  E  E   
--------------------------|--------------------------|
--------------------------|--------------------------|
--3--3--3--3--3-----------|--------------------------|
-----------------0--1--2--|--3--3--3--3--3--3--3--3--|


  E  E  E  E  E  E  E  E     E  E  E  E  E  E  E  E   
--------------------------|--------------------------|
--------------------------|--------------------------|
--------------3--3--3--3--|--1--1--1--1--1--1--1--2--|
--3--3--3--3--------------|--------------------------|


  E  E  E  E  E  E  E  E     E  E  E  E  E  E  E  E   
--------------------------|--------------------------|
--------------------------|--------------------------|
--3--3--3--3--3-----------|--------------------------|
-----------------0--1--2--|--3--3--3--3--3--3--3--3--|


  E  E  E  E  E  E  E  E     E  E  E  E  E  E  E  E   
--------------------------|--------------------------|
--------------------------|--------------------------|
--------------3--3--3--3--|--1--1--1--1--1--1--1--2--|
--3--3--3--3--------------|--------------------------|


  E  E  E  E  E  E  E  E     E  E  E  E  E  E  E  E   
--------------------------|--------------------------|
--------------------------|--------------------------|
--3--3--3--3--3-----------|--------------------------|
-----------------0--1--2--|--3--3--3--3--3--3--3--3--|


  E  E  E  E  E  E  E  E     E  E  E  E  E  E  E  E   
--------------------------|--------------------------|
--------------------------|--------------------------|
--------------3--3--3--3--|--1--1--1--1--1--1--1--2--|
--3--3--3--3--------------|--------------------------|


                              Outro                        
  E  E  E  E  E  E  E  E      E  E  E  E  E  E  E  E   
--------------------------||--------------------------|
--------------------------||--------------------------|
--3--3--3--3--3-----------||--------------------------|
-----------------0--1--2--||--3--3--3--3--3--3--3--3--|


  E  E  E  E  E  E  E  E     E  E  E  E  E  E  E  E   
--------------------------|--------------------------|
--------------------------|--------------------------|
--------------------------|--------------------------|
--3--3--3--3--3--3--3--3--|--3--3--3--3--3--3--3--3--|


  E  E  E  E  E  E  E  E     E  E  E  E  E  E  E  E   
--------------------------|--------------------------|
--------------------------|--------------------------|
--------------------------|--------------------------|
--3--3--3--3--3--3--3--3--|--3--3--3--3--3--3--3--3--|


  E  E  E  E  E  E  E  E     E  E  E  E  E  E  E  E   
--------------------------|--------------------------|
--------------------------|--------------------------|
--------------------------|--------------------------|
--3--3--3--3--3--3--3--3--|--3--3--3--3--3--3--3--3--|


  E  E  E  E  E  E  E  E     E  E  H        Q       
--------------------------|-----------------------||
--------------------------|-----------------------||
--3--3-----1--------------|-----------------------||
-----------------1-----3--|--3--3--3--------L\----||




Duration Legend
---------------
W - whole
H - half
Q - quarter
E - 8th


Tablature Legend
----------------
L - tied note
h - hammer on
p - pull off


Get my other tabs for Guitar Pro, Powertab, guitar/bass text and chords at
http://profile.ultimate-guitar.com/TexasFury/contributions/
Suggest correction
Give kudos to tab author, rate the tab!
1 2 3 4 5
comments
print report bad tab
guest
You may want to rate the tab now too:
select rating
Wanna post a correction for this tab? Suggest correction