Oops, an error
Loading. Please wait.

I Put A Spell On You Tab

289 views 6 this week
no commentswrite comment
1 2 3 4 5
3 more votes to show rating
add to favorites
launch autoscroll
font size
0
reset
how to read this tab
guitar tuner
Autoscroll
slow
fast
+/-
esc
set tempo
stop
Help us to improve Ultimate-Guitar.com Take our survey!
×
Author
"I Put a Spell On You"
by Screamin' Jay Hawkins

Piano and horns arranged for guitar.

Bass notes are played by the horns, and are noted immediately above the diagram.  Above these are the chords
transcribed from the piano.  In both cases, rhythm is marked with slashes. - mr.dub

         Fm        Bbm      C7no5    C7         Bbm*
       ------    ------    ------  ------     ------
     4 xx|||o  9 xx|||o  8 xxx||o  xx||o|   6 xx|ooo
       xx|o||    xx|o||    xxxo||  xxo|||     xx||||
       xxo|o|    xxo|o|    xxx|||  xx|o|o     xxo|||
       xx||||    xx||||    xxx|o|  xx||||     xx||||
       ------    ------    ------  ------     ------

          Fm/ / / / / / / /  / / / / / / / / / / / /
    E F G G#    /     /      E F G G#    /     /
e[|---------4-4---4-4---4-4|---------4-4---4-4---4-4|
B[|---------6-6---6-6---6-6|---------6-6---6-6---6-6|
G[|-----0---5-5---5-5---5-5|-----0---5-5---5-5---5-5|
D[|-2-3---6-----6-----6----|-2-3---6-----6-----6----|
A[|------------------------|------------------------|
E[|------------------------|------------------------|

   / / / / / / / / / / / /  / / / Bbm / / / / / / /  / / / Fm/ / / / / / / /  / / / / / / / / / / / /
   G#    /     /     /      / A#C C#    /     /      /     G#    /     /      E F G G#    /     /
e|---4-4---4-4---4-4---4-4|---------9-9---9-9---9-9|---9-9---4-4---4-4---4-4|---------4-4---4-4---4-4|
B|---6-6---6-6---6-6---6-6|---------1111--1111--1111---1111--6-6---6-6---6-6|---------6-6---6-6---6-6|
G|---5-5---5-5---5-5---5-5|---------1010--1010--1010---1010--5-5---5-5---5-5|-----0---5-5---5-5---5-5|
D|-6-----6-----6-----6----|-6-8-1011----11----11---|-11----6-----6-----6----|-2-3---6-----6-----6----|
A|------------------------|------------------------|------------------------|------------------------|
E|------------------------|------------------------|------------------------|------------------------|
   1. I put a spell on you                              because you're mine.

    / / / Bbm / / / / / / /  / / / / / / / / / / / /  / / / C7no5 / / / / / /  / / / / / / / / / / / /
    / A#C C#    /     /      / / C C#    /     /      / / D E     /     /      / C#D E     /     /
e[|---------9-9---9-9---9-9|---------9-9---9-9---9-9|---------8-8---8-8---8-8|---------8-8---8-8---8-8|
B[o---------1111--1111--1111---------1111--1111--1111---------1010--1010--1010---------1010--1010--1010
G[|---------1010--1010--1010---------1010--1010--1010-------9-----9-----9----|-9-----9-----9-----9----|
D[|-6-8-1011----11----11---|-11111011----11----11---|-111112-----------------|---1112-----------------|
A[o------------------------|------------------------|------------------------|------------------------|
E[|------------------------|------------------------|------------------------|------------------------|
        Stop the things you do.                Whaha! Watch out!  I ain't lyin'!                    Yeah!
     2. Stop the things you do.                Whaha! Watch out!  I ain't lyin'!                Oooh!

   / / / Fm/ / / / / / / /  / / / / / / / / / / / /  / / / Bbm / / / / / / /  / / / / / / / / / / / /
   E F G G#    /     /      /     /     /     /      / A#C C#    /     /      / / C C#    /     /
e|---------4-4---4-4---4-4|---4-4---4-4---4-4---4-4|---------9-9---9-9---9-9|---------9-9---9-9---9-9|
B|---------6-6---6-6---6-6|---6-6---6-6---6-6---6-6|---------1111--1111--1111---------1111--1111--1111
G|-----0---5-5---5-5---5-5|---5-5---5-5---5-5---5-5|---------1010--1010--1010---------1010--1010--1010
D|-2-3---6-----6-----6----|-6-----6-----6-----6----|-6-8-1011----11----11---|-11111011----11----11---|
A|------------------------|------------------------|------------------------|------------------------|
E|------------------------|------------------------|------------------------|------------------------|
         I can't stand -Whoo!-   no runnin' around.      I can't stand          no puttin' me down.
   Oh!   I love you!     I love you!    I love you anyhow!  I don't care if you don't want me. I'm yours right

                                                                             ________Ending 1________
   / / / Fm/ / / / / / / /  / / / C7/ / / / / / / /  / / / Fm/ / / / / Bbm*/| / / / Fm/ / / / / / / /
   / A#G G#    /     /      / G F E     /     /      / F G G#    /     A#   | E F G G#    /     /
e|---------4-4---4-4---4-4|---------3-3---3-3---3-3|---------4-4---4-4---6-6|---------4-4---4-4---4-4|
B|---------6-6---6-6---6-6|---------1-1---1-1---1-1|---------6-6---6-6---6-6|---------6-6---6-6---6-6|
G|-----0---5-5---5-5---5-5|---0-----3-3---3-3---3-3|-----0---5-5---5-5---6-6|-----0---5-5---5-5---5-5|
D|-118---6-----6-----6----|-6---3-2-----2-----2----|-2-3---6-----6-----8----|-2-3---6-----6-----6----|
A|------------------------|------------------------|------------------------|------------------------|
E|------------------------|------------------------|------------------------|------------------------|
          I put a spell on you                  because    you're mine.  Ooohh yeah!
 now.     I put a spell on you                  because    you're mine, mine,

  ________________________
   / / / / / / / / / / / /  / / / Bbm / / / / / / /  / / / Fm/ / / / / / / /  / / / / / / / / / / / /
   E F G G#    /     /      / A#C C#    /     /      / A#G G#    /     /      E F G G#    /     /
e|---------4-4---4-4---4-4|---------9-9---9-9---9-9|---------4-4---4-4---4-4|---------4-4---4-4---4-4|]
B|---------6-6---6-6---6-6|---------1111--1111--1111---------6-6---6-6---6-6|---------6-6---6-6---6-6o]
G|-----0---5-5---5-5---5-5|---------1010--1010--1010-----0---5-5---5-5---5-5|-----0---5-5---5-5---5-5|]
D|-2-3---6-----6-----6----|-6-8-1011----11----11---|-118---6-----6-----6----|-2-3---6-----6-----6----|]
A|------------------------|------------------------|------------------------|------------------------o]
E|------------------------|------------------------|------------------------|------------------------|]

  ________Ending 2________
 | / / / Fm
 | E F G G#
e|-------4-( l   r    )---|]
B|-------6-(  e   i   )---|]
G|-----0-5-(   t   n  )---|]
D|-2-3---6-(        g )---|]
A|------------------------|]
E|------------------------|]
    mine. Ooh, you're mine.
Suggest correction
Give kudos to tab author, rate the tab!
1 2 3 4 5
comments
print report bad tab
guest
You may want to rate the tab now too:
select rating
Wanna post a correction for this tab? Suggest correction