Oops, an error
Loading. Please wait.

Rose Mountain Tab

16 views 1 this week
no commentswrite comment
1 2 3 4 5
3 more votes to show rating
add to favorites
launch autoscroll
font size
0
reset
how to read this tab
guitar tuner
Autoscroll
slow
fast
+/-
esc
set tempo
stop
Help us to improve Ultimate-Guitar.com Take our survey!
×
Author
Difficulty
intermediate
About this tab version
Official Audio for the song can be found at the top of the tab, and includes lyrics below tab. Was this info helpful? Yes No
Rose Mountain - Screaming Females
Tabbed by: Riley Fitzpatrick 
Email: winterfitz36@gmail.com
Tuning: E Standard
Official Audio: https://www.youtube.com/watch?v=PPgLQF-qe_g

[Intro]

(Part 1, Played Four Times)
e|--------------------------------------|
B|--------------------------------------|
G|--------------------------------------|
D|-*-*-*-*-*-*-*-*-*-*-*-*-*--*--*-*-*--|
A|-9-9-9-7-9-9-9-9-9-9-9-7-9--10-9-7-9--|
E|-7-7-7-7-7-7-7-7-7-7-7-7-7--7--7-7-7--|

(Part 2, Played Four Times)
e|----------------------------------|
B|----------------------------------|
G|----------------------------------|
D|-*-*-*-*-*-*-----*-*-*------------|
A|-9-9-9-9-9-9-9-9-9-9-9-7-10-9-7-9-|
E|-7-7-7-7-7-7-7-7-7-7-7-7-7--7-7-7-|

(Part 3, Played Four Times. Slide in brackets only played on the fourth time)
e|--------------------------------------------|
B|--------------------------------------------|
G|--------------------------------------------|
D|-*-*-*-*-*-*-10-7-*-*-*---------------------|
A|-9-9-9-9-9-9-8--5-9-9-9-7-9-10-9-7-9(/)-----|
E|-7-7-7-7-7-7------7-7-7-7-7-7--7-7-7(/)-----|

Part 4
e|--------------|
B|--------------|
G|--------------|
D|-*--*--*--*---|
A|-12-12-11-11--|
E|-10-10-9--9---|



Verse Part 1 (Played Three Times):
e|-------------------------------------------------------|
B|-------------------------------------------------------|
G|-------7---Three-*-------------------------------------|
D|--9-9------Times-9-7-9---------------------------------|
A|--*-*----------------- 7-9-----------------------------|
E|-------------------------------------------------------|

Verse Part 2 (played Three Times)
e|-----------------------------------|
B|----7---7--------------------------|
G|---9-9-7-9-------------------------|
D|--9---9----------------------------|
A|-----------------------------------|
E|-----------------------------------|

Verse Part 3 (Played IMMEDIATELY after Part 2)
e|----------------------------------|
B|-\9-------------------------------|
G|----9-7---------------------------|
D|--------9-7-----------------------|
A|------------9-7-------------------|
E|----------------10----------------|


[Chorus]

This is split into four parts because the Post-Chorus chops a bit off. 
The first segment is the only constant, with the second being played for the first three repetitions,
followed by the corresponding ending. The Post-chorus (AKA 4th Ending) chops the second segment of this
off, and I seperated it out as such.


e|--------------------------|--------|-----------|-1st&3rd-|-----2nd-----|
B|-------------------Three--|--------|-----------|--Ending-|---Ending----|
G|-------------------Times--|--------|-----------|---------|-------------|
D|--9--9--xx--5--5-xx-------|-9-9-xx-|--Three----|--7-xx-6-|---7-7-6-6---|
A|--9--9--xx--5--5-xx-------|-7-7-xx-|--Times----|--5-xx-4-|---5-5-4-4---|
E|--7--7--xx--3--3-xx-------|--------|-----------|---------|-------------|

Post Chorus (4th Ending):
e|------------------------|
B|------------------------|
G|-9~---------------------|
D|-9~---------------------|
A|-7~--4-4-5-5------------|
E|-----*-*-*-*------------|


Play verse and Chorus again.


[Bridge]
e|------------------------------------------------------------------|
B|------------------------------------------------------------------|
G|------------------------------------------------------------------|
D|-------\5-4-2-4~------------\5-4----------4-----------------------|
A|-2-0-2----------------2-0-2------7--4-5-7---5-4-------------------|
E|------------------------------------------------------------------|

e|---------------------------------------------------------------|
B|---------------------------------------------------------------|
G|---------------------------------------------------------------|
D|-------\5-4-2-4~-----------\5-4-2~-----------------------------|
A|-2-0-2---------------2-0-2-------------------------------------|
E|---------------------------------------------------------------|

Play the chorus one last time and finish with:

e|--------|
B|--------|
G|--------|
D|--9/----|
A|--9/----|
E|--7/----|

Legend:
\5 - Slide up to the fifth fret
9/ - Slide down to the nut.
~ - Vibrato
*(above or below) - Palm Mute

Lyrics:

[Verse 1]
Please won't you bury me on rose mountain
I'm so small, I'll be in peace
On rose mountain
White lines slice the dark highway
I'm shattered on the slay

[Chorus 1]
I'm nothing like the others
My brain is deep
I'm walking on the moon
I'm nothing like the others
I was made just for you

[Verse 2]
Please won't you bury me on rose mountain
Speak of my legacy
On rose mountain
White lines slice the dark highway
I'm shattered on the slay

[Chorus 2]
I'm nothing like the others
My brain is deep
I'm walking on the moon
I'm nothing like the others
I was made just for you

[Bridge]
Well I'm in the rush of seasons
Rose withered, flat, and dry
No irrational, no reason
So I won't try

[Chorus 3]
I'm nothing like the others
My brain is deep
I'm walking on the moon
I'm nothing like the others
I was made just for you



************************************

| *  Natural harmonic
| \  Slide down
| x  Dead note
| ~  Vibrato
| /  Slide up

************************************
Suggest correction
Give kudos to tab author, rate the tab!
1 2 3 4 5
comments
print report bad tab
guest
You may want to rate the tab now too:
select rating
Wanna post a correction for this tab? Suggest correction