Oops, an error
Loading. Please wait.

Dime Western Bass Tab

357 views 1 this week
no commentswrite comment
1 2 3 4 5
please rate
add to favorites
launch autoscroll
font size
0
reset
guitar tuner
Autoscroll
slow
fast
+/-
esc
set tempo
stop
Help us to improve Ultimate-Guitar.com Take our survey!
×
Author
Difficulty
novice
            DIME WESTERN - SCREAMING TREES

Tabbed by RoshanC
email: roshancroker@hotmail.co.uk

This is a great song of Dust, The Tree's last album. Its easy to play, but fun to jam 
improvise over.

there are only really two lines, verse and Chorus

Verse
G----------------|
D----------------|
A-5-5-X3-------3-|
E---------0h5----|

Chorus
G--------------------------------------------|
D--------------------------------------------|
A-3--3--3-3--3-3--3-5-3-0----------------3-3-|
E------------------------3--3--3-3--5-5------|

G--------------------------------------------------|
D--------------------------------------------------|
A-5--5--5-5--5-5--5-5-5-5--5--5--5-5--5-5--5-5-5-5-|
E--------------------------------------------------|
Suggest correction
Give kudos to tab author, rate the tab!
1 2 3 4 5
comments
print report bad tab
guest
You may want to rate the tab now too:
select rating
Wanna post a correction for this tab? Suggest correction