Oops, an error
Loading. Please wait.

Gospel Plow Bass Tab

1,446 views 1 this week
no commentswrite comment
1 2 3 4 5
please rate
add to favorites
launch autoscroll
font size
0
reset
guitar tuner
Autoscroll
slow
fast
+/-
esc
set tempo
stop
Help us to improve Ultimate-Guitar.com Take our survey!
×
Author
                  GOSPEL PLOW - SCREAMING TREES

Tabbed by RoshanC
email: roshancroker@hotmail.co.uk

This is the last song on Dust, the Tree's last and greatest album. it a great song, with 
good change of moods.

Tuning: EADG

Quiet Gospel section

Come in on 0m 8s#

FIG 1
G|4p2p0|2-------|0-------|-----------|--------|
D|-----|--------|--------|2-----4p2p0|2-------|
A|-----|--------|--------|-----------|--------|
E|-----|--------|--------|-----------|--------|

G|2-------|0--------|------4p2p0|--------|
D|--------|---------|2----------|2-------|
A|--------|---------|-----------|--------|
E|--------|---------|-----------|--------|

dont pla again until 0m 52s when you
REPEAT FIG 1 X 1

The next section is the main rock body

Verse
FIG 2
G|--------------------------|------------------------|
D|0h2-2-2-2---5--2-----0-2--|0h2-2-2-2---5--2------0-|
A|------------------2-------|-----------------0-0h2--|
E|--------------------------|------------------------|

Repeat FIG 2 X 3

Chorus
FIG 3
G|---------------------|-------------------------|
D|3--3--3-3----3-3-3-3-|0h2-2-2-2---5--2----0-2--|
A|---------------------|------------------2------|
E|---------------------|-------------------------|

G|-----------------------------------------|
D|-----------------------------------------|
A|3-3-3-3-3--3-3-3-5-0---------------------|
E|---------------------3-3-3-3-3--3-3-3-5-0|

REPEAT FIG 2 / VERSE X 3

REPEAT FIG 3 / CHORUS X 1

Play the first bar of Fig 2 and then

Bridge
Fig 4
G|---------------------------------------|
D|---------------------------------------|
A|1--1--1-1---1-1-1-1-2--2--2-2---2-2-2-2|
E|---------------------------------------|

REPEAT FIG 4 X 3

Bridge cntd
Fig 5
G|-------------------------------------------|
D|------------------------------0-2---2-0----|
A|---------------------------------------2-0-|
E|3---3--3-3-3h5-5-3--3-3-3h5-0--------------|

G|-------------------------------------------|
D|------------------------------0-2---2-0----|
A|---------------------------------------2-0-|
E|3---3--3-3-3h5-5-3--3-3-3h5-0--------------|

G|-------------------------------------------|
D|------------------------------0-2---2-0----|
A|---------------------------------------2-0-|
E|3---3--3-3-3h5-5-3--3-3-3h5-0--------------|

G|---------------------------------|
D|-------------------0-2---2-2-2-2-|
A|---------------------------------|
E|3--3--3-3--2-2--2----------------|

Then REPEAT FIG 2 X 4

Then REPEAT FIG 3 X 1

Then play first bar of Fig 2

Then FIG 4 X 4

Then Fig 5 X 1

Silence until 4m 44s  from which you play

G|2-------|--------|--------|--------|
D|--------|5-------|2-------|--------|
A|--------|--------|--------|--------|
E|--------|--------|--------|--------|

and repeat until the end

I may have missed a few fills but that should be almost perfect version
Email me if you spot a mistake
Thanks
Suggest correction
What's this?
You can suggest a correction to this tab. Community and Mods will review your correction and vote to approve or reject it.
comments
We did not receive enough feedback on this tab! Please rate:
print report bad tab
1 2 3 4 5
guest
You may want to rate the tab now too:
select rating
Please do not post tabs as comments. Select "correction" instead!