Oops, an error
Loading. Please wait.

Revelator Tab

751 views 1 this week
no commentswrite comment
1 2 3 4 5
please rate
add to favorites
launch autoscroll
font size
0
reset
how to read this tab
guitar tuner
Tab Pro tools
  • play this tab
  • loop segment
  • change instrument
  • show fretboard
  • metronome
×
Best way to learn
"Revelator"
Autoscroll
slow
fast
+/-
esc
set tempo
stop
Contributor
This tab is nearly impossible to find, so I'm submitting it here. I didn't do this 
I'm just spreading the wealth haha. This track was never released.

Revelator Tab
 Screaming Trees - Revelator


         Tuning: Standard
         Transcribed by: Brynjar Helgason


  Intro:

  |-------------------------------|              |-----------------------|
  |------8p7----------------5-0---|              |------8p7--------------|
  |-7--------------7p6-----4---0--|              |-7--------------7p6----|
  |-7---------7---------2-------0-|  last time : |-7---------7---------2-|
  |-5---------7---------2---------|              |-5---------7---------2-|
  |-----------5---------0---------|              |-----------5---------0-|

  Verse:

  |-0--0----x-------5----------0--0----|
  |-0-0-0---7--7----5----------0-0-0---|
  |-1----1--7-7-7---6-6-7-6----1----1--|
  |-2-----2-7----7--7-------7--2-----2-|
  |-2-------5-----5-7--------7-2-------|
  |-0---------------5----------0-------|

  Chorus:

  |-x-x-x-x---5-5-5-5---0-0-0-0--0-0-0-0-|
  |-7-7-7-7---5-5-5-5---0-0-0-0--0-0-0-0-|
  |-7-7-7-7---6-6-6-6---1-1-1-1--1-1-1-1-|
  |-7-7-7-7---7-7-7-7---2-2-2-2--2-2-2-2-|
  |-5-5-5-5---7-7-7-7---2-2-2-2--2-2-2-2-|
  |-----------5-5-5-5---0-0-0-0--0-0-0-0-|
   Strum

  Solo:

  |------------------------------------------------------15b-12-15b-12----------12-|
  |-15p12h15p12h15p12h15p12-15b-12-15b-12------------------------------15-12-15----|
  |---------------------------------------14-12----12------------------------------|
  |---------------------------------------------14----14---------------------------|
  |--------------------------------------------------------------------------------|
  |--------------------------------------------------------------------------------|

   ------------------------------------------------------15b-12-15b-12----12-|
   -15p12h15p12h15p12h15p12-15b-12----12-------------------------------15----|
   --------------------------------14----14-12----12-------------------------|
   --------------------------------------------14----------------------------|
   --------------------------------------------------------------------------|
   --------------------------------------------------------------------------|

  Chorus 2:

  |-------------------------------|
  |------8p7----------------5-0---|
  |-7--------------7p6-----4---0--|
  |-7---------7---------2-------0-|
  |-5---------7---------2---------|
  |-----------5---------0---------|

  Outro:

  |-15-12-15-12-16b-15-15-12---------------------------------|
  |--------------------------15-12---------------------------|
  |--------------------------------14-12----12-14-12---------|
  |--------------------------------------14----------14------|
  |----------------------------------------------------------|
  |----------------------------------------------------------|

  15-12-15-12-16b-15-15-12----------------------------16b-15-|
  -------------------------15-12-----------------------------|
  -------------------------------14-12----12-14-12-----------|
  -------------------------------------14----------14--------|
  -----------------------------------------------------------|
  -----------------------------------------------------------|

  Intro:6
  Verse:3
  Chorus:4
  Verse:3
  Chorus:2
  Solo
  verse:3
  Chorus:4
  Chorus2:4
  Outro

       If you have any comennts just mail me sir_idiot@hotmail.com
comments
We did not receive enough feedback on this tab! Please rate:
print report bad tab
1 2 3 4 5
I want to post or [tab]
guest
You may want to rate the tab now too:
select rating
Please do not post tabs as comments. Select "correction" instead!