Oops, an error
Loading. Please wait.

Shadow Of The Season Tab

version 2
version 2

Whole song

1,993 views 3 this week
no commentswrite comment
1 2 3 4 5
excellent!
x 3
add to favorites
launch autoscroll
font size
0
reset
how to read this tab
guitar tuner
Tab Pro tools
  • play this tab
  • loop segment
  • change instrument
  • show fretboard
  • metronome
×
Best way to learn
"Shadow Of The Season"
Autoscroll
slow
fast
+/-
esc
set tempo
stop
Contributor
Shadow of the Season

Screaming Trees

Tabbed by:Brownbear93

Intro:
G1:
|------------------------------------------------------------------------|
|------------------------------------------------------------------------|
|------------------------------------------------------------------------|x8
|--15p12---12---15p12---12---15--17--15p12---12---15p12---12---10--12----|
|---0----0----0--0----0----0--0---0---0----0----0--0----0----0--0---0----|
|------------------------------------------------------------------------|

G2
|------------|------------------------------|
|------------|----------13------------------|
|-----7~-----|----12h14----14p12-10~--------|
|------------|------------------------------|
|------------|------------------------------|
|------------|------------------------------|


Verse:
G1:
|-----------------------------------|
|-----------------------------------|
|---7---7-7-7---7-7---7-7-----------|x4
|---7---7-7-7---7-7---7-7------3----|
|---5---5-5-5---5-5---5-5--3h5------|
|-----------------------------------|

G2:
|---------------------------|
|-------13------------------|
|---12b----(12)rp10---------|
|-------------------10-12~--|
|---------------------------|
|---------------------------|

G1:                                                                                     x4
|-------------------------------------------------------|-----------------------------------|
|-------------------------------------------------------|-----------------------------------|
|---7--------7-7--------7-7--------7-7------7-7-7-------|---7---7-7-7---7-7---7-7-----------|
|---7--------7-7--------7-7--------7-7------7-7-7-----3-|---7---7-7-7---7-7---7-7------3----|
|---5--------5-5--------5-5--------5-5------5-5-5-3h5---|---5---5-5-5---5-5---5-5--3h5------|
|-------------------------------------------------------|-----------------------------------|

G2:
|----------------|---------------------------------|
|----------------|--------13-----------------------|
|--12b-----10~---|----12b---(12)r-10h12------------|
|----------------|----------------------10-12~-----|
|----------------|---------------------------------|
|----------------|---------------------------------|


Chorus:
|---------------------------------------------|
|---------------------------------------------|x2
|-10---12--10---9\----------------------------|
|-10---12--10---9\---------------------3~-----|
|--8---10---8---7\----3h5-0-5~---3h5-0--------|
|---------------------------------------------|

|----------------------------------------|
|----------------------------------------|
|---5----5-10-10-7---7-7-7--7-7-7--7-----|
|---5----5-10-10-7---7-7-7--7-7-7--7-----|
|---3----3--8--8-5---5-5-5--5-5-5--5-----|
|----------------------------------------|

Verse

Chorus

Post Chorus: (Last D5 only played during repeat)
|----------------------------------------------------|
|----------------------------------------------------|
|---7\------10\-------5-------7--10--12--12--7-10--7-|x2
|---7\------10\-------5-------7--10--12--12--7-10--7-|
|---5\-------8\-------3-------5---8--10--10--5--8--5-|
|----------------------------------------------------|

G2:
|--------------------------------------------------|
|-------------------------13-----------13b---------|
|------10-12p10----10h12b----12p10-10--------------|
|---12----------12---------------------------------|
|--------------------------------------------------|
|--------------------------------------------------|


Bridge:
|------------------------------------------------------------------2---2-2---|
|--3------3------3----1------1------1----0------0------0----1------3---3-3---|
|----2------2------2----2------2------2----2------2------2----2----2---2-2---|
|------0------0-----------0------0-----------0------0-----------0--0---0-0---|
|----------------------------------------------------------------------------|
|----------------------------------------------------------------------------|


Solo: 
|----------------------------------------------------------------------------|
|----8-7--7-7-7-7-7-8-10--8-7------------------------------------------5b-5--|
|------------------------------0-7p5p0-7p5p0-7p5p0-7p5p0--------5-5/---5b-5--|
|---------------------------------------------------------7p5-7--------------|
|----------------------------------------------------------------------------|
|----------------------------------------------------------------------------|

|---------------------------------------------------------------------------|
|--12-12-12-10-10----10-----------------------------------------------------|
|--12-12-12-10-10----10--5p0--7b-7b-7p5---5-----------7p5p0-7p5p0-7p5p0-----|
|-----------------12--------------------5---5-7/10-10-----------------------|
|---------------------------------------------------------------------------|
|---------------------------------------------------------------------------|

|---------------------------------------------------------------------------------|
|---------------------------------------------------------------------------------|
|--7---7-7-9/10----10-10-10-12/14----14-14-14-16/17-----17~----17~----17-17-17----|
|-----------------------------------------------------0----0----------------------|
|---------------------------------------------------------------------------------|
|---------------------------------------------------------------------------------|

|---------------------------------------------------------------------------------|
|-----------------20--20-20---20\18-15---15-15--18h20--22--22-22---22-22-22-22-22-|
|---19---19-19-19-----------------------------------------------------------------|
|---------------------------------------------------------------------------------|
|---------------------------------------------------------------------------------|
|---------------------------------------------------------------------------------|


Intro Riff


G2:
|-------------|--------------------------|-----------------|
|-------------|--------------------------|-----------------|
|--12b--------|---12b----pb12r-10--------|-------10--------|
|-------------|-------------------12~----|---12--10--12~---|
|-------------|--------------------------|-----------------|
|-------------|--------------------------|-----------------|

|-------------|--------------------------|-----------------------|
|-------------|--------------------------|-----------------------|
|--12b--------|---12b----pb12r-10--------|-------------10b-------|
|-------------|-------------------12~----|--10p0-10-12-----12~---|
|-------------|--------------------------|-----------------------|
|-------------|--------------------------|-----------------------|



************************************

| /   slide up
| \   slide down
| h   hammer-on
| p   pull-off
| ~   vibrato
| +   harmonic
| x   Mute note
| b   Bend
| pb  Pre-bend
| br  Bend release
| pbr Pre-bend release
| brb Bend release bend

************************************
comments
We did not receive enough feedback on this tab! Please rate:
print report bad tab
1 2 3 4 5
I want to post or [tab]
guest
You may want to rate the tab now too:
select rating
Please do not post tabs as comments. Select "correction" instead!