Oops, an error
Loading. Please wait.

Witness Bass Tab

548 views 6 this week
no commentswrite comment
1 2 3 4 5
please rate
add to favorites
launch autoscroll
font size
0
reset
guitar tuner
Autoscroll
slow
fast
+/-
esc
set tempo
stop
Help us to improve Ultimate-Guitar.com Take our survey!
×
Author
Intro/Verse:
G|--------------------------------------|
D|--------------------------------------|
A|-5--5-\-3--3-3--8---8-8---10-8--------|
E|-------------------------------10-8---|

Pre Chorus:
G|-----------------------------|  
D|-----------------------------|x2
A|-5--55---------1--11---------|
E|--------1-1-1---------3-3-3--|

G|--------------------|  
D|--------------------|
A|--------------------|
E|-6-6----6-8-6-5-----|

Chorus:
G|--------------------------------------------------------|
D|--------------------------------------------------------|
A|-5--5-5-5-5---8--8-8-8-8---3--3-3-3-3--1--1-1-------1---|
E|-----------------------------------------------3--3---3-|

Solo:
G|-----------------------------|  
D|-----------------------------|x4
A|-5--55---------1--11--3-3-3--|
E|--------1-1-1----------------|

Outro:
G|----------------------------|
D|----------------------------|
A|-5-5-5-5-5---8--3----0-3-0--|
E|----------------------------|

G|----------------------------|
D|----------------------------|
A|-5-5-5-5-5------0--3--------|
E|-------------3--------------|

G|----------------------------|
D|----------------------------|
A|-5-5-5-5-5---8--3----0-3-0--|
E|----------------------------|

G|----------------------------|
D|----------------------------|
A|-5-5-5-5-5---8-10-8---------|
E|--------------------10-8-10-|
Suggest correction
Give kudos to tab author, rate the tab!
1 2 3 4 5
comments
print report bad tab
guest
You may want to rate the tab now too:
select rating
Please do not post tabs as comments. Select "correction" instead!