Oops, an error
Loading. Please wait.

Cool Kids Tab

version 1
version 1

Whole song

Interactive

7,113 views 12 this week
3 commentsread comments
1 2 3 4 5
x 11
add to favorites
×
Save as Personal and add changes to this tab that will be seen only by you. Learn more ›
×
You can save this tab as Personal to edit and correct it or add notes. All changes will be seen only by you. Learn more »
save as personal
new!
launch autoscroll
font size
0
reset
how to read this tab
guitar tuner
Autoscroll
slow
fast
+/-
esc
set tempo
stop
Author
Tuning
E A D G B E
E|-------------------------------------------------------------------------|
B|-------------------------------------------------------------------------|
G|-----------------------------------5-555555555555555---------------------|
D|-5-5555555555555555555555555555555-5-555555555555555-5-555555555555555---|
A|-5-5555555555555555555555555555555-3-333333333333333-5-555555555555555---|
E|-3-3333333333333333333333333333333-------------------3-333333333333333---|

E|-----------------------------------------| 
B|-----------------------------------------| 
G|-7-7777777--5-5555555------------7777777-| 
D|-7-7777777--5-5555555--5-5555555-7777777-| 
A|-5-5555555--3-3333333--5-5555555-5555555-| 
E|-----------------------3-3333333---------| 

Riff:
e|-----------------|------------------|
B|-----------------|------------------|
G|-----4---5---7-5-|(5)-4-5-4-5-4-----| x6
D|-5---------------|--------------5---|
A|-----------------|------------------|
E|-----------------|------------------|

Second solo: repeat riff 6x then play this
e|--------------10---------------------| 
B|8---10---12------8---8-10---12---15--| 
G|-------------------------------------| 
D|-------------------------------------| 
A|-------------------------------------| 
E|-------------------------------------| 

e|--------------10---------------------| 
B|8---10---12------8---8-10---12---15--| 
G|-------------------------------------| 
D|-------------------------------------| 
A|-------------------------------------| 
E|-------------------------------------| 

e|10---10---10---8-h10-------------------------| 
B|-----------------------10-h12-p10-h12-p10-8--| 
G|---------------------------------------------| 
D|---------------------------------------------| 
A|---------------------------------------------| 
E|---------------------------------------------| 

e|--------------10---------------------| 
B|8---10---12------8---8-10---12---15--| 
G|-------------------------------------| 
D|-------------------------------------| 
A|-------------------------------------| 
E|-------------------------------------| 

e|10---10-p8------10---8---x-x-x-----8-| 
B|-----------10------------------8-----|
G|-------------------------------------| 
D|-------------------------------------| 
A|-------------------------------------| 
E|-------------------------------------|  

e|----------------10-----10-10-10-10--| 
B|--8---10---12------8----------------| 
G|------------------------------------| 
D|------------------------------------| 
A|------------------------------------| 
E|------------------------------------|
Suggest correction
comments
print report bad tab
3 comments total.
0 reply
super sean 10 Aug 14, 2005 08:00 PM

could use some noting of when to plam mute

0 reply
punkpsycho 156 Mar 21, 2008 01:39 PM

yeah, could use noting when to palm mute
plus the outro's different from the verse, not all of it is pm so would've been helpful if u added it

0 reply
Black60Dragon 10 Dec 04, 2015 06:54 AM

Guys, It clearly shows you where to palm mute........

guest
You may want to rate the tab now too:
select rating
Wanna post a correction for this tab? Suggest correction