Oops, an error
Loading. Please wait.

Teenage Slumber Party Tab

7 views 1 this week
no commentswrite comment
1 2 3 4 5
3 more votes to show rating
add to favorites
launch autoscroll
font size
0
reset
how to read this tab
guitar tuner
Autoscroll
slow
fast
+/-
esc
set tempo
stop
Help us to improve Ultimate-Guitar.com Take our survey!
×
Difficulty
novice
About this tab version
This tab may not be completely correct, but it's not very hard to play, and the tempo is easy to get if you listen to the song. Was this info helpful? Yes No
[Intro]

e|---------------------------------------------------------------------------|
B|---------------------------------------------------------------------------|
G|------------6-7-9-9-7---6--------------------------------------------------|
D|-------7-77------------7-7-------6-7-9-9-7---6-----------------------------|
A|----------------------------7-77------------7-7---(2x)---------------------|
E|---------------------------------------------------------------------------|

e|--------------------------------|
B|--------------------------------|
G|------------6-7-9------6-7-9----|
D|--------7-7--------7-7----------|
A|--------------------------------|
E|--------------------------------|

(Repeat after playing second part)


Suggest correction
Give kudos to tab author, rate the tab!
1 2 3 4 5
comments
print report bad tab
guest
You may want to rate the tab now too:
select rating
Wanna post a correction for this tab? Suggest correction