Oops, an error
Loading. Please wait.

Whitechapel Bass Tab

by Scum
710 views 6 this week
no commentswrite comment
1 2 3 4 5
accurate
x 3
add to favorites
launch autoscroll
font size
0
reset
guitar tuner
Autoscroll
slow
fast
+/-
esc
set tempo
stop
Help us to improve Ultimate-Guitar.com Take our survey!
×
Author
-------------------------------------------------------------------------------
                             Whitechapel - S.C.U.M
-------------------------------------------------------------------------------
Tabbed by: dunnoeh
This is my first tab. Most of it should be right, enjoy!

Tuning:EADG

Intro and "Colour of me your touch grey/white" Verse
G|------11-11-9--------------------------------------------------------------|
D|---------------11x13-9-9-9-------7-7---------------------------------------|
A|-9x13-----------------------7x13-----7-------------------------------------|
E|------------------------------------------7x8-5x8--------------------------|

"For the last past..." "Awaken me walk me..." Verse
G|------------11-11-9--------------------------------------------------------|
D|--------------------11-1111----x3--11-11-9-9-------------7-7---------------|
A|-9-99--x3-9-----------------11---------------7-77---x3-7-----7-------------|
E|------9-------------------------------------------7-------------7x8-5x8----|

2:57
G|---------------------------------------------------------------------------|
D|---------------------------------------------------------------------------|
A|-9x16-10x16-11x16-10x16----then repeat-------------------------------------|
E|---------------------------------------------------------------------------|

3:27 "Colour of me your touch grey/white"
G|---------------------------------------------------------------------------|
D|---------------------------------------------------------------------------|
A|-9------------------7------------------------------------------------------|
E|-----------9-----------------7---------------------------------------------|
 
Then you do the intro and just keep on doing the verses and you just fade out. 
Thats pretty much the entire song, have fun!
http://www.scum1968.com/

| /  slide up
| \  slide down
| h  hammer-on
| p  pull-off
| ~  vibrato
| +  harmonic
| x  Mute note
===============================================================================
Suggest correction
Give kudos to tab author, rate the tab!
1 2 3 4 5
comments
print report bad tab
guest
You may want to rate the tab now too:
select rating
Wanna post a correction for this tab? Suggest correction