Oops, an error
Loading. Please wait.

Die Nadel Tab

86 views 1 this week
no commentswrite comment
1 2 3 4 5
please rate
add to favorites
launch autoscroll
font size
0
reset
how to read this tab
guitar tuner
Autoscroll
slow
fast
+/-
esc
set tempo
stop
Help us to improve Ultimate-Guitar.com Take our survey!
×
Difficulty
intermediate
Tabbed by KARPi
stefan.karp@gmx.de
SCUMPIES
Die Nadel from Album "Zahn der Zeit"
www.scumpies.de
www.myspace.com/scumpies




Intro:

Guitar1:
(first leadguitar alone)
e|-----------------------------------------------------------------|
B|-**-*--*-**-*-*--**-*--*-**-*-*--**-*--*-**-*-*--**-*--*---------|
G|---------------7-------------------7-57-7--5-7-5-----------------|
D|---8-78-8--7-8-------------------55-5--5-55-5-5------------------|
A|-55-5--5-55-5-5----8-78-8--7-8-7-------------------8-78-8~--88---|
E|-----------------66-6--6-66-6-6------------------66-6--66~--66---|
   1 2 3 4 1 2 3 4 1 2 3 4 1 2 3 4 1 2 3 4 1 2 3 4 1 2 3 4 1 2 3 4


(0:10)
Guitar1:
e|-----------------------------------------------------------------|
B|---6-56-6--5-6-10---6-56-6--5-6-5---10-810-10-8-10-8---6-56-6~---|
G|-77-7--7-77-7-7---33-3--3-33-3-3--77--7---7--7-7--7--33-3--33~---|
D|-----------------------------------------------------------------|
A|-----------------------------------------------------------------|
E|-----------------------------------------------------------------|
   1 2 3 4 1 2 3 4 1 2 3 4 1 2 3 4 1 2 3 4 1 2 3 4 1 2 3 4 1 2 3 4

Guitar2
e|-----------------------------------------------------------------|
B|-----------------------------------------------------------------|
G|-----------------------------------------------------------------|
D|-7~--------------8~--------------7~--------------8~--------------|
A|-5~--------------8~--------------5~--------------8~--------------|
E|-----------------6~------------------------------6~--------------|
   1 2 3 4 1 2 3 4 1 2 3 4 1 2 3 4 1 2 3 4 1 2 3 4 1 2 3 4 1 2 3 4

___________________________________________________________________________

Verse1: (...komm' lass uns zusamm'...)
(0:19)
Both Guitars:
e|-----------------------------------------------------------------|
B|-**--**--**--**--**--**--**--**--**--**--**--**--**-**-----------|
G|-----------------------------------------------------------------|
D|-777-777-777-777-888-888-888-888-777-777-777-777-888-888-33333333|
A|-555-555-555-555-888-888-888-888-555-555-555-555-888-888-33333333|
E|-----------------666-666-666-666-----------------666-666-11111111|
   1 2 3 4 1 2 3 4 1 2 3 4 1 2 3 4 1 2 3 4 1 2 3 4 1 2 3 4 1 2 3 4

Verse2:
(...für ein paar Stunden...)
(0:29)
Guitar1:

e|-----------------------------------------------------------------|
B|---------10101111--------11111010--------10101111-------11111111-|
G|-----------------------------------------------------------------|
D|-777777777777888-888888888888777-777777777777888-888888888888888-|
A|-55555555--------88888888--------55555555--------8888888---------|
E|-----------------66666666------------------------6666666---------|
   1 2 3 4 1 2 3 4 1 2 3 4 1 2 3 4 1 2 3 4 1 2 3 4 1 2 3 4 1 2 3 4

Guitar2:
e|-----------------------------------------------------------------|
B|-----------------------------------------------------------------|
G|-----------------------------------------------------------------|
D|-777777777777777-888888888888888-777777777777777-8888888-33333333|
A|-555555555555555-888888888888888-555555555555555-8888888-33333333|
E|-----------------666666666666666-----------------6666666-11111111|
   1 2 3 4 1 2 3 4 1 2 3 4 1 2 3 4 1 2 3 4 1 2 3 4 1 2 3 4 1 2 3 4


Pre-Chorus:
(0:39)
Both Guitars:

(...auch wenn ich mich dabei verlier'..)

e|-----------------------------------------------------------------|
B|-----------------------------------------------------------------|
G|-----------------------------------------------------------------|
D|-7777777-888-333--55555555555555555555-55555555-7----------------|
A|-5555555-888-333--33333333333333333333-55555555-7----------------|
E|---------666-111-----------------------33333333-5----------------|
   1 2 3 4 1 2 3 4 1 2 3 4 1 2 3 4 1 2 3 4 1 2 3 4 1 2 3 4 1 2 3 4

Chorus:
both Guitars:
(0:46)
(...die Zeit steht still....)
e|-----------------------------------------------------------------|
B|-----------------------------------------------------------------|
G|-----------------------------------------------------------------|
D|-77777777777777-8888888888888888-777777777777777-555555555555555-|
A|-55555555555555-8888888888888888-555555555555555-333333333333333-|
E|----------------6666666666666666---------------------------------|
   1 2 3 4 1 2 3 4 1 2 3 4 1 2 3 4 1 2 3 4 1 2 3 4 1 2 3 4 1 2 3 4

(...nie warst du mir so nah...)
(0:56)
e|-----------------------------------------------------------------|
B|-----------------------------------------------------------------|
G|-----------------------------------------------------------------|
D|-777777777777777-888888888888888-333333333333333-555555555555555-|
A|-555555555555555-888888888888888-333333333333333-333333333333333-|
E|-----------------666666666666666-111111111111111-----------------|
   1 2 3 4 1 2 3 4 1 2 3 4 1 2 3 4 1 2 3 4 1 2 3 4 1 2 3 4 1 2 3 4

then...
(01:06)
e|-----------------------------------------------------------------|
B|-----------------------------------------------------------------|
G|-----------------------------------------------------------------|
D|-77777-7---------88888-8---------77777-7---------88888-8~--------|
A|-55555-5---------88888-8---------55555-5---------88888-8~--------|
E|-----------------66666-6-------------------------66666-6~--------|
   1 2 3 4 1 2 3 4 1 2 3 4 1 2 3 4 1 2 3 4 1 2 3 4 1 2 3 4 1 2 3 4

(01:15)
Verse1

(01:25)
Verse2

(01:42)
Chorus

(02:00)
Solo: 

Guitar1

Guitar2 (2x)
e|-----------------------------------------------------------------|
B|-----------------------------------------------------------------|
G|-----------------------------------------------------------------|
D|-777777777777777-888888888888888-777777777777777-555555555555555-|
A|-555555555555555-888888888888888-555555555555555-333333333333333-|
E|-----------------666666666666666---------------------------------|
   1 2 3 4 1 2 3 4 1 2 3 4 1 2 3 4 1 2 3 4 1 2 3 4 1 2 3 4 1 2 3 4

(02:20)
Bridge: both Guitars
(... mit einem lachendem Auge...)                                   (...nächste mal...)

e|-----------------------------------------------------------------|-----------------|
B|-----------------------------------------------------------------|-----------------|
G|-----------------------------------------------------------------|-----------------|
D|-777777777777777-888888888888888-777777777777777-8888888833333333|-5-5-5-7-7-7-----|
A|-555555555555555-888888888888888-555555555555555-8888888833333333|-5-5-5-7-7-7-----|
E|-----------------666666666666666-----------------6666666611111111|-3-3-3-5-5-5-----|
   1 2 3 4 1 2 3 4 1 2 3 4 1 2 3 4 1 2 3 4 1 2 3 4 1 2 3 4 1 2 3 4

(02:35)
Chorus: clean Guitar

e|-1-1-1-0---------------------------------------------------------|
B|-3-2-3-1---------------------------------------------------------|
G|-2-3-2-0---------------------------------------------------------|
D|-0-3-0-2---------------------------------------------------------|
A|---1---3---------------------------------------------------------|
E|-----------------------------------------------------------------|
   1 2 3 4 1 2 3 4 1 2 3 4 1 2 3 4 1 2 3 4 1 2 3 4 1 2 3 4 1 2 3 4

(...nie warst du mir so nah...)
(02:45)
e|-----------------------------------------------------------------|
B|-----------------------------------------------------------------|
G|-----------------------------------------------------------------|
D|-777777777777777-888888888888888-333333333333333-555555555555555-|
A|-555555555555555-888888888888888-333333333333333-333333333333333-|
E|-----------------666666666666666-111111111111111-----------------|
   1 2 3 4 1 2 3 4 1 2 3 4 1 2 3 4 1 2 3 4 1 2 3 4 1 2 3 4 1 2 3 4

(02:54)
e|-----------------------------------------------------------------|
B|-----------------------------------------------------------------|
G|-----------------------------------------------------------------|
D|-7777777777777777777777777---------------------------------------|
A|-5555555555555555555555555---------------------------------------|
E|-----------------------------------------------------------------|
   1 2 3 4 1 2 3 4 1 2 3 4 1 2 3 4 1 2 3 4 1 2 3 4 1 2 3 4 1 2 3 4
Suggest correction
What's this?
You can suggest a correction to this tab. Community and Mods will review your correction and vote to approve or reject it.
comments
We did not receive enough feedback on this tab! Please rate:
print report bad tab
1 2 3 4 5
guest
You may want to rate the tab now too:
select rating
Please do not post tabs as comments. Select "correction" instead!