Oops, an error
Loading. Please wait.

Wenn Alles Brennt Tab

212 views 3 this week
no commentswrite comment
1 2 3 4 5
please rate
add to favorites
launch autoscroll
font size
0
reset
how to read this tab
guitar tuner
Autoscroll
slow
fast
+/-
esc
set tempo
stop
Help us to improve Ultimate-Guitar.com Take our survey!
×
Author
Difficulty
intermediate
http://www.scumpies.de/
Scumpies - Wenn alles brennt
==================================================================================================
Tabbed by: Stefan Karp /// stefan.karp@gmx.de
Tuning: Standart
~ = Let Ring
/ = Slide
/\ = Pick slide
h = hammer on
p = pull off


notice: Scumpies is a german punkrock/hardcore band that's remind me of Rise Against in 
the way they play this song.
	The strumming is easy to hear. Just listen clear and hear a few times again.
	The solo i didn't figured out, it's really fast played - so might u can figure it - 
just let me know!
	Have fun!



INTRO - Leadguitar
played as harmonics*
                                				2x
e|555---777-------555---777-------555---777-------555---777----------|
B|---555---7777777---777---7777777---555---7777777---555---7777777~--|
G|-------------------------------------------------------------------|
D|-------------------------------------------------------------------|
A|-------------------------------------------------------------------|
E|-------------------------------------------------------------------|
   1 2 3 4 1 2 3 4 1 2 3 4 1 2 3 4 1 2 3 4 1 2 3 4 1 2 3 4 1 2 3 4

INTRO - 2nd Guitar
let E ring after 2-times play this riff
		   					        2x
e|--------------------------------------------------------------------|
b|--------------------------------------------------------------------|
G|--------------------------------------------------------------------|
D|2222222222225555-5555555555555555-7777777777777777------------------|
A|2222222222225555-3333333333332222-5555555555555555-5555555555555555-|
E|0000000000003333-----------------------------------3332223332223333-|
   1 2 3 4 1 2 3 4 1 2 3 4 1 2 3 4  1 2 3 4 1 2 3 4  1 2 3 4 1 2 3 4

INTRO - 3rd Guitar
comes in after 4 beats (0:12)
									let ring!
e|----------------------------------------------------------------------------------|
b|----------------------------------------------------------------------------------|
G|-99-99-99-99-9-9-1212-1212-1212-12-12-1111-1111-1111-1111-12-12-77-77-77-99-9-7-9~|
D|----------------------------------------------------------------------------------|
A|-77-77-77-77-7-7-1010-1010-1010-10-10-9-9--9-9--9-9--9-9--10-10-55-55-55-77-7-5-7~|
E|----------------------------------------------------------------------------------|
   1 2 3 4 1 2 3 4 1 2 3 4 1 2 3 4 1 2 3 4 1 2 3 4 1 2 3 4 1 2 3 4

-----------------------------------------------------------------------------------------------

FILL - Leadguitar     (0:27)
e|-0~--------------|
B|-0~--------------|
G|-0~-----pickslide|
D|-2~-------/\/\/\/|
A|-2~-------/\/\/\/|
E|-0~-------/\/\/\/|
   1 2 3 4 1 2 3 4

FILL - 2nd Guitar
e|-----------------|
b|-----------------|
G|---------7h9~----|
D|-7h9~------------|
A|-----------------|
E|-----------------|
   1 2 3 4 1 2 3 4

FILL - Both Guitars	(0:37)

e|--------------------------------|
b|--------fast play!--------------|
G|--------------------------------|
D|--------------------------------|
A|-222522-2225x57-222522-2225x57--|
E|-000300-0003035-000300-0003035--|

----------------------------------------------------------------------------------------------

VERSE - Leadguitar  (0:42)

e|-------------------------------------------------------------------------|
b|-------------------------------------------------------------------------|
G|-777-12-11-999-12-11----------------777-12-11-999-12-11------------------|
D|-------------------------------------------------------------------------|
A|-555-10-9--777-10-9--222522-2225x57-555-10-9--777-10-9--222522-2225x57---|
E|---------------------000300-0003035---------------------000300-0003035---|
   1 2 3 4 1 2 3 4 1 2 3 4 1 2 3 4 1 2 3 4 1 2 3 4 1 2 3 4 1 2 3 4


VERSE - 2nd Guitar

e|-------------------------------------------------------------------------|
b|-------------------------------------------------------------------------|
G|-------------------------------------------------------------------------|
D|-5555555-77777777--------------------5555555-77777777--------------------|
A|-3333333-55555555---222522-2225x57---3333333-55555555--222522-2225x57----|
E|--------------------000300-0003035---------------------000300-0003035----|
   1 2 3 4 1 2 3 4 1 2 3 4 1 2 3 4 1 2 3 4 1 2 3 4 1 2 3 4 1 2 3 4

----------------------------------------------------------------------------------------------

PRE CHORUS - Leadguitar (0:52)

e|-----------------------------------------------palm------------------|
b|--8----8----8----8----8--8--8-8--8--8-5--5--5--88888-----------------|
G|-5-5--7-7--9-9--9-9----00-00-0-00-00-0-00-00-0-00000-----------------|
D|---------------------------------------------------------------------|
A|---------------------------------------------------------------------|
E|---------------------------------------------------------------------|
   1 2 3 4 1 2 3 4 1 2 3 4 1 2 3 4 1 2 3 4 1 2 3 4 1 2 3 4 1 2 3 4

PRE CHORUS - 2nd Guitar

e|---------------------------------------------------------------------|
b|---------------------------------------------------------------------|
G|---------------------------------------------------palm--------------|
D|-555555-777777-222222-555555-777777-555555-777777-5555555------------|
A|-333333-555555-222222-555555-777777-333333-555555-5555555------------|
E|---------------000000-333333-555555---------------3333333------------|
   1 2 3 4 1 2 3 4 1 2 3 4 1 2 3 4 1 2 3 4 1 2 3 4 1 2 3 4 1 2 3 4

----------------------------------------------------------------------------------------------

CHORUS - Leadguitar (1:02)
									continue...
e|--------------------------------------------------------------------------------|
b| <----------- 3x----------------------------------------------------------------|
G|-9999999999-7777--9999-12-111111-777-12-1111-7-9999999999-11111111-121212121212-|
D|--------------------------------------------------------------------------------|
A|-7777777777-5555--7777-10-9-9-9--555-10-9-9--5-7777777777-9-9-9-9--101010101010-|
E|--------------------------------------------------------------------------------|
   1 2 3 4 1 2 3 4 1 2 3 4 1 2 3 4 1 2 3 4 1 2 3 4 1 2 3 4 1 2 3 4

here...

  ---------------------------------------------------------------|
  ---------------------palm strumming----------------------------|
  1212121212-11111111-99999999-88888888--------------------------|
  ---------------------------------------------------------------|
  1010101010-9-9-9-9--77777777-66666666--------------------------|
  ---------------------------------------------------------------|
   1 2 3 4 1 2 3 4 1 2 3 4 1 2 3 4 1 2 3 4 1 2 3 4 1 2 3 4 1 2 3 4


CHORUS - 2nd Guitar

e|------------------------------------------------------------------|
b|------------------------------------------------------------------|
G|------------------------------------------------------------------|
D|-222222222225555-555555555555555-777777777777777-5555555-7777777--|
A|-222222222225555-333333333332222-555555555555555-3333333-5555555--|
E|-000000000003333--------------------------------------------------|
   1 2 3 4 1 2 3 4 1 2 3 4 1 2 3 4 1 2 3 4 1 2 3 4 1 2 3 4 1 2 3 4

e|------------------------------------------------------------------|
b|------------------------------------------------------------------|
G|-------------------------------------------------palm strumming---|
D|-222222222222555-555555555555555-777777777777777-444444444444444--|
A|-222222222222555-333333333332222-777777777777777-222222222222222--|
E|-000000000003333-----------------555555555555555------------------|
   1 2 3 4 1 2 3 4 1 2 3 4 1 2 3 4 1 2 3 4 1 2 3 4 1 2 3 4 1 2 3 4

----------------------------------------------------------------------------------------------

!!!!    				1x INTRO				!!!!!
					  THEN


FILL GUITAR (1:35)
e|--------------------------------|
b|--------fast play!--------------|
G|--------------------------------|
D|--------------------------------|
A|-222522-2225x57-222522-2225x57--|
E|-000300-0003035-000300-0003035--|

----------------------------------------------------------------------------------------------

VERSE Leadguitar (1:40)
							    play on into solo (2x)
e|---------------------------------------------------------------0~-|--------------|
b|---------------------------------------------------------------0~-|--------------|
G|---------------------0~-------0~---------7/9h~----------7h9~---0~-|---0~-----0~--|
D|---2~-------0~------2~-------4~---7h9~-----------7h9~-------------|--2~-----4~---|
A|--2~-------2~------3~-----3/5~------------------------------------|-3~---3/5~----|
E|-0~-------3~------------------------------------------------------|--------------|
   1 2 3 4 1 2 3 4 1 2 3 4 1 2 3 4 1 2 3 4 1 2 3 4 1 2 3 4 1 2 3 4

e|------------------------------------------------------------------|--------------|
b|-----------------------------------palm mute-strumming...........-|--------------|
G|------------------------------------------------------------------|--------------|
D|-2~------5~------5~------7~-------22222222-55555555-5555555-777777|--5~-----7~---|
A|-2~------5~------3~------5~-------22222222-55555555-3333333-555555|--3~-----5~---|
E|-0~------3~-----------------------00000000-33333333---------------|--------------|
   1 2 3 4 1 2 3 4 1 2 3 4 1 2 3 4 1 2 3 4 1 2 3 4 1 2 3 4 1 2 3 4

----------------------------------------------------------------------------------------------

Guitar plays while Intro (2:10)
								2x then...
e|-------------------------------------------------------------------|------------------|
b|-------------------------------------------------------------------|------------------|
G|-------------------------------------------------------------------|----let E ring!---|
D|-222222222225555-555555555555555-777777777777777-------------------|-2~---------------|
A|-222222222225555-333333333332222-555555555555555-555555555555555---|-2~---------------|
E|-000000000003333---------------------------------333222333222333---|-0~---------------|
   1 2 3 4 1 2 3 4 1 2 3 4 1 2 3 4 1 2 3 4 1 2 3 4 1 2 3 4 1 2 3 4

Bass plays alone - Guitar comes in at (2:42)
with...

-----------------|
-----------------|
-----------------|
-----------------|
--55555555555555-|
--33322233322233-|

----------------------------------------------------------------------------------------------

!!!!!					CHORUS AGAIN	(2:45)			!!!!!!


Outro - 2nd Guitar (3:07)

e|------------------------------------------------------------------|
b|------------------------------------------------------------------|
G|-----------palm strumming---------let ring------------------------|
D|-444444444444444-444444444444444-2~-------------------------------|
A|-222222222222222-222222222222222-2~-------------------------------|
E|---------------------------------0~-------------------------------|
   1 2 3 4 1 2 3 4 1 2 3 4 1 2 3 4 1 2 3 4 1 2 3 4 1 2 3 4 1 2 3 4

OUTRO - Lead Guitar

e|-10h12-12-10--10--------------------------------------------------|
b|------------12--12-10h12-12-10--10-------let ring-----------------|
G|------------------------------12--12------------------------------|
D|-------------------------------------12-14~-----------------------|
A|------------------------------------------------------------------|
E|------------------------------------------------------------------|
   1 2 3 4 1 2 3 4 1 2 3 4 1 2 3 4 1 2 3 4 1 2 3 4 1 2 3 4 1 2 3 4
Suggest correction
What's this?
You can suggest a correction to this tab. Community and Mods will review your correction and vote to approve or reject it.
comments
We did not receive enough feedback on this tab! Please rate:
print report bad tab
1 2 3 4 5
guest
You may want to rate the tab now too:
select rating
Please do not post tabs as comments. Select "correction" instead!