Oops, an error
Loading. Please wait.

Shoulder Length Bass Tab

97 views 1 this week
no commentswrite comment
1 2 3 4 5
3 more votes to show rating
add to favorites
launch autoscroll
font size
0
reset
guitar tuner
Autoscroll
slow
fast
+/-
esc
set tempo
stop
Help us to improve Ultimate-Guitar.com Take our survey!
×
Author
------------|
-----9------|  part A
--------7---|
-77---------|  Play repeatedly until the lyric, "divided right in two".



--------------7-9--------|
-----7---7-9-------7-9---|  part B
--77---7-----------------|
-------------------------|  This part is played twice.


-----------------------|
----------7----9-9-7-9-|  part C
----7--5----7----------|
-5---------------------|  This part is played twice.


------------|
-----9------|  part A
--------7---|
-77---------|  repeat part A until the lyric, "I gave it all away."


--------------7-9--------|
-----7---7-9-------7-9---|  part B
--77---7-----------------|
-------------------------|  This part is played three times.


-----------------------|
----------7----9-9-7-9-|  part C
----7--5----7----------|
-5---------------------|  Play four times.
Suggest correction
Give kudos to tab author, rate the tab!
1 2 3 4 5
comments
print report bad tab
guest
You may want to rate the tab now too:
select rating
Wanna post a correction for this tab? Suggest correction