Oops, an error
Loading. Please wait.

Purging Of The Wicked tab

version 2
version 2

Whole song

Interactive

2,875 views 1 this week
5 commentsread comments
1 2 3 4 5
1 last vote to show rating
add to favorites
×
Save as Personal and add changes to this tab that will be seen only by you. Learn more ›
×
You can save this tab as Personal to edit and correct it or add notes. All changes will be seen only by you. Learn more »
launch autoscroll
font size
0
reset
how to read this tab
guitar tuner
edit
Autoscroll
slow
fast
+/-
esc
set tempo
stop
Song: Purging Of The Wicked
Band: Sea Of Treachery

Tuning: Drop C (C G C F A D)

Tabbed by: Aaron Stinson
E-Mail: Arsenik92@live.com

-----------------------

PM or - = palm mute
T = tremolo pick
~ = hold note
* = harmonic
b = bend
x = silent/muted
h = hammer-on
p = pull-off

-----------------------


Intro I( : - : ) play four times

Guitars I, II
|--------------------------------|
|--------------------------------|
|--------------------------------|
|--------------------------------|
|-000-000-000-00--0-00000--0000--|
|-000-000-000-00--0-00000--0000--|
PM--- --- --- --  - -----  ----

Intro II ( : - : ) play four times

Guitars I, II
|---------------------------|
|---------------------------|
|---------------------------|
|---------------------------|
|-0--0--000-00--0-00000--0--|
|-0--0--000-00--0-00000--0--|
PM-  -  --- --  - -----  -

( : - : )

Guitar I
|------------------------------------|
|------------------------------------|
|------------------------------------|
|------------------------------------|
|-----5---8---7p5-----8h10-----12\---|
|-0-0---0---0-----0-0------0-0-------|
PM- -   -   -     - -      - -

Guitar II
|------------------------------------|
|------------------------------------|
|------------------------------------|
|-0~---------------------------------|
|-0~---------------------------------|
|-0~---------------------------------|

(contd.)
Guitar I
|---------------------------------|
|---------------------------------|
|---------------------------------|
|---------------------------------|
|-----10---8---7------5---7---8---|
|-8-8----8---8----5-5---5---5-----|
PM- -    -   -    - -   -   -

Guitar II
|----------------------------------------|
|----------------------------------------|
|----------------------------------------|
|-8~--------------5~---------------------|
|-8~--------------5~---------------------|
|-8~--------------5~---------------------|

( : - : )

Guitar I
|------------------------------------|
|------------------------------------|
|------------------------------------|
|------------------------------------|
|-----5---8---7p5-----8h10-----12\---|
|-0-0---0---0-----0-0------0-0-------|
PM- -   -   -     - -      - -

Guitar II
|------------------------------------|
|------------------------------------|
|------------------------------------|
|------------------------------------|
|-0-0--------------------------------|
|-0-0--------------------------------|
PM- -

(contd.)
Guitar I
|---------------------------------|
|---------------------------------|
|---------------------------------|
|---------------------------------|
|-----10---8---7------5---7---8---|
|-8-8----8---8----5-5---5---5-----|
PM- -    -   -    - -   -   -

Guitar II
|---------------------------------|
|---------------------------------|
|---------------------------------|
|-------------------------5---7---|
|-8-8-----------------8-----------|
|-8-8-------------5-5---5---5-----|
PM                - -   -   -

Verse I ( : - : ) play twice

Guitars I, II
|------------------------------------|
|------------------------------------|
|------------------------------------|
|------------------------------------|
|-----5---8---7p5-----8h10-----12\---|
|-0-0---0---0-----0-0------0-0-------|
PM- -   -   -     - -      - -

|---------------------------------|
|---------------------------------|
|---------------------------------|
|---------------------------------|
|-----10---8---7------5---7---8---|
|-8-8----8---8----5-5---5---5-----|
PM- -    -   -    - -   -   -

( : - : )

Guitars I, II
|--------------------------|x2
|--------------------------|
|--------------------------|
|--------------------------|
|-----5---8---7p5-000--00--|
|-0-0---0---0-----000--00--|
PM- -   -   -     ---  --

(contd.)
Guitar I
|---------------------------|x2
|---------------------------|
|---------------------------|
|---------5---10\-----------|
|-----8-----------000--00---|
|-0-0---0---0-----000--00---|
PM- -   -   -     ---  --

Guitar II
|--------------------------|
|--------------------------|
|--------------------------|
|--------------------------|
|-----5---7---8\-000--00---|
|-0-0---0---0----000--00---|
PM- -   -   -    ---  --

Second time, both guitars end on:
|---------------|
|---------------|
|---------------|
|---------------|
|-8~-----5~-----|
|-8~-----5~-----|

Chorus ( : - : ) play twice

Guitar I
|--------------------------------|
|--------------------------------|
|--------------------------------|
|--------------------------------|
|------8---7h8--------8---8s7----|
|-8--8---8-----8-5--5---5-----5--|
PM   -   -     -    -   -     -

Guitar II
|--------------------------------|
|--------------------------------|
|--------------------------------|
|--------------------------------|
|------8---7h8--------8---8s7----|
|-8--8---8-----8-5--5---5-----5--|
PM   -   -     -    -   -     -

(contd.)
Guitar I
|-----------------------------------------|
|-----------------------------------------|
|-----------------------------------------|
|-----------------------------------------|
|--------10----8h10---------13---12---10--|
|-10--10----10------10-0--0----0----0-----|
PM    --    --      --    -     -    -

Guitar II
|---------------------------------------|
|---------------------------------------|
|---------------------------------------|
|---------------------------------------|
|--------10----8h10---------10---8---7--|
|-10--10----10------10-0--0----0---0----|
PM    --    --      --    -     -   -

( : - : )

Guitar I
|--------------------------------|
|--------------------------------|
|--------------------------------|
|--------------------------------|
|------8---7h8--------8---8s7----|
|-8--8---8-----8-5--5---5-----5--|
PM   -   -     -    -   -     -

Guitar II
|--------------------------------|
|--------------------------------|
|--------------------------------|
|------7---5h7--------7---7s5----|
|--------------------------------|
|-8--8---8-----8-5--5---5-----5--|
PM   -   -     -    -   -     -

(contd.)
Guitar I
|-----------------------------------------|
|-----------------------------------------|
|-----------------------------------------|
|-----------------------------------------|
|--------10----8h10---------13---12---10--|
|-10--10----10------10-0--0----0----0-----|
PM    --    --      --    -     -    -

Guitar II
|-------------------------------------|
|-------------------------------------|
|-------------------------------------|
|--------8----7h8---------------------|
|-------------------------10---8---7--|
|-10--10---10-----10-0--0----0---0----|
PM    --   --     --    -    -   -

( : - : )

|----------------------|
|----------------------|
|----------------------|
|-8~~-----5~~----------|
|-8~~-----5~~----------|
|-8~~-----5~~------12\-|

Re-Intro ( : - : ) play twice

Guitars I, II
|----------------------------|x4
|----------------------------|
|----------------------------|
|----------------------------|
|-0--0--0000-00--0-00000--00-|
|-0--0--0000-00--0-00000--00-|
PM-  -  ---- --  - -----  --

both end on this fourth time
|---------|
|---------|
|---------|
|-8--10---|
|-8--10---|
|-8--10---|

( : - : ) play three times

Guitar I
|---------------------------------|
|---------------------------------|
|---------------------------------|
|---------------------------------|
|-0-------------------------------|
|-0--0-000-000-000-000-000-000-0--|
PM   - --- --- --- --- --- --- -

Guitar II
|---------------------------------|
|---------------------------------|
|---------------------------------|
|---------------------------------|
|-0-------------------------------|
|-0------------------------0-0-0--|
PM                         - - -

(contd.)
Guitars I, II
|------------------------------------------------------|
|------------------------------------------------------|
|------------------------------------------------------|
|------------------------------------------------------|
|-10---------------------------------------------------|
|-10--10--101010-101010-101010-101010-101010-101010-10-|
PM    --  ------ ------ ------ ------ ------ ------ --

(contd.)
|---------------------------------|
|---------------------------------|
|---------------------------------|
|---------------------------------|
|-7-------------------------------|
|-7--7--777-777-777-777-777-777-7-|
PM   -  --- --- --- --- --- --- -

(contd.)
Guitar I
|----------------------------------------------------|
|----------------------------------------------------|
|----------------------------------------------------|
|------------------7777------------------------------|
|-8--8888-10101010------10101010-8888-10101010-8888--|
|-8--------------------------------------------------|

Guitar II
|--------------------------------------------|
|--------------------------------------------|
|--------------------------------------------|
|------------------7777-8888-7777-8888-7777--|
|-8--8888-10101010---------------------------|
|-8------------------------------------------|

( : - : )

Guitar I
|------------------|
|------------------|
|------------------|
|------------------|
|-0-0-0-0-0--------|
|-0-0-0-0-0--3*~---|
PM- - - - -

Guitar II
|------------------|
|------------------|
|------------------|
|------------------|
|-0-0-0-0-0--3*~---|
|-0-0-0-0-0--------|
PM- - - - -

Verse II( : - : )

Guitars I, II
|------------------------------------|
|------------------------------------|
|------------------------------------|
|------------------------------------|
|-----5---8---7p5-----8h10-----12\---|
|-0-0---0---0-----0-0------0-0-------|
PM- -   -   -     - -      - -

|---------------------------------|
|---------------------------------|
|---------------------------------|
|---------------------------------|
|-----10---8---7------5---7---8---|
|-8-8----8---8----5-5---5---5-----|
PM- -    -   -    - -   -   -

second time, end on:
|----------|
|----------|
|----------|
|----------|
|-5-5--3-3-|
|-5-5--3-3-|
PM- -  - -

( : - : )

Guitar I
|------------------------------------|
|------------------------------------|
|------------------------------------|
|------------------------------------|
|-----5---8---7p5-----8h10-----12\---|
|-0-0---0---0-----0-0------0-0-------|
PM- -   -   -     - -      - -

|---------------------------------|
|---------------------------------|
|---------------------------------|
|---------------------------------|
|-----10---8---7------5---7---8---|
|-8-8----8---8----5-5---5---5-----|
PM- -    -   -    - -   -   -

Guitar II
|-----------------------------------|
|-----------------------------------|
|-----------------------------------|
|-----3---7---5p3-----7h8-----10\---|
|-----------------------------------|
|-0-0---0---0-----0-0-----0-0-------|
PM- -   -   -     - -     - -

|--------------------------------|
|--------------------------------|
|--------------------------------|
|-----8---7---5----------5---7---|
|--------------------8-----------|
|-8-8---8---8----5-5---5---5-----|
PM- -   -   -    - -   -   -

( : - : )

Guitar I
|----------------------------------------|
|----------------------------------------|
|----------------------------------------|
|----------------------------------------|
|-000-000-------------------000-3b*------|
|-000-000------------(bass)-000----------|
PM--- ---                   ---

Guitar II
|------------------------------------|
|------------------------------------|
|------------------------------------|
|------------------------------------|
|----------000-000----------000------|
|----------000-000---(bass)-000-3b*--|
PM         --- ---          ---

( : - : ) play twice

Guitars I, II
|---------------------------------|
|---------------------------------|
|---------------------------------|
|---------------------------------|
|-000-000-000-000-------5-8-7-4*--|
|-000-000-000-000-0-5-8-----------|
PM--- --- --- --- - - - - - -

(contd.)
|----------------------------------|
|----------------------------------|
|----------------------------------|
|----------------------------------|
|-000-000-000-000-8-----7---5-4----|
|-000-000-000-000---5-0---4-----7--|
PM--- --- --- ---   - - - - - - -

Breakdown ( : - : )

Guitars I, II
|---------------------------------------------------|
|---------------------------------------------------|
|---------------------------------------------------|
|---------------------------------------------------|
|-----------------5555555588888888-4-4-4-4-7-7-7-7--|
|-000-000-000-000-----------------------------------|
PM--- --- --- ---                  - - - - - - - -

|---------------------------------------------------|
|---------------------------------------------------|
|---------------------------------------------------|
|---------------------------------------------------|
|-----------------8888888855555555-7-7-7-7-4-4-4-4--|
|-000-000-000-000-----------------------------------|
PM--- --- --- ---                  - - - - - - - -

(contd.)
Guitars I, II
|---------------------------------------------------|
|---------------------------------------------------|
|---------------------------------------------------|
|---------------------------------------------------|
|-----------------55555555888888884444444477777777--|
|-000-000-000-000-----------------------------------|
PM--- --- --- --- 

|---------------------------------------------------|
|---------------------------------------------------|
|---------------------------------------------------|
|---------------------------------------------------|
|-----------------88888888555555557777777744444444--|
|-000-000-000-000-----------------------------------|
PM--- --- --- ---

Chorus ( : - : ) play twice

Guitar I
|--------------------------------|
|--------------------------------|
|--------------------------------|
|--------------------------------|
|------8---7h8--------8---8s7----|
|-8--8---8-----8-5--5---5-----5--|
PM   -   -     -    -   -     -

Guitar II
|--------------------------------|
|--------------------------------|
|--------------------------------|
|--------------------------------|
|------8---7h8--------8---8s7----|
|-8--8---8-----8-5--5---5-----5--|
PM   -   -     -    -   -     -

(contd.)
Guitar I
|-----------------------------------------|
|-----------------------------------------|
|-----------------------------------------|
|-----------------------------------------|
|--------10----8h10---------13---12---10--|
|-10--10----10------10-0--0----0----0-----|
PM    --    --      --    -     -    -

Guitar II
|---------------------------------------|
|---------------------------------------|
|---------------------------------------|
|---------------------------------------|
|--------10----8h10---------10---8---7--|
|-10--10----10------10-0--0----0---0----|
PM    --    --      --    -     -   -

( : - : )

Guitar I
|--------------------------------|
|--------------------------------|
|--------------------------------|
|--------------------------------|
|------8---7h8--------8---8s7----|
|-8--8---8-----8-5--5---5-----5--|
PM   -   -     -    -   -     -

Guitar II
|--------------------------------|
|--------------------------------|
|--------------------------------|
|------7---5h7--------7---7s5----|
|--------------------------------|
|-8--8---8-----8-5--5---5-----5--|
PM   -   -     -    -   -     -

(contd.)
Guitar I
|-----------------------------------------|
|-----------------------------------------|
|-----------------------------------------|
|-----------------------------------------|
|--------10----8h10---------13---12---10--|
|-10--10----10------10-0--0----0----0-----|
PM    --    --      --    -     -    -

Guitar II
|-------------------------------------|
|-------------------------------------|
|-------------------------------------|
|--------8----7h8---------------------|
|-------------------------10---8---7--|
|-10--10---10-----10-0--0----0---0----|
PM    --   --     --    -    -   -

Interlude ( : - : )

Guitar I
|--------------------------------|
|--------------------------------|
|--------------------------------|
|-8~-------------------5~--------|
|-8~---10---8---8h10~--5~--------|
|-8~-8----8---8--------5~--------|
PM   -    -   -

Guitar II
|--------------------------------|
|--------------------------------|
|--------------------------------|
|-8~-------------------5~--------|
|-8~-------------------5~--------|
|-8~-------------------5~--------|

Solo (UPDATED! Taken from the Sea Of Treachery blog, 100% correct.)

|-------------------------------------------------------------------------------|
|--------------------------15---------------------------------------------------|
|-------------14--12b--12b----12--10h12p10--------------------------------------|
|-/7-/10-/12--------------------------------12-10h12--12-12/15-15p14-14h15-15---|
|-------------------------------------------------------------------------------|
|-------------------------------------------------------------------------------|

|-----13-------------------------------------------------------------------------|
|-13b----13b--11h13p11-----------------------------------------------------------|
|----------------------0-10/12\10--0-/7~--7-7-7/10-10p9-9h10-10/12-12\10-9h10-9--|
|--------------------------------------------------------------------------------|
|--------------------------------------------------------------------------------|
|--------------------------------------------------------------------------------|

|------------------------6---------------------------------------|
|-----------------6-8-10---6~--6-6-6-5-5-6-6-8--6-8-8*b--6-5-6~--|
|-------------5-7------------------------------------------------|
|-------5-7-8----------------------------------------------------|
|-5-7-8----------------------------------------------------------|
|----------------------------------------------------------------|
PM- - - - - - -

|-13-13-13------------------------------------------------------------|
|----------15-13-15-13----13------------------------------------------|
|----------------------14----14-12-14-12----12------------------------|
|----------------------------------------15----15-12-15-12-10-10/12~--|
|---------------------------------------------------------------------|
|---------------------------------------------------------------------|

|--------------------------------------------------------|
|--------------------------------------------------------|
|-----------------------------10-12-10-12-12b-12-10------|
|-12-12-12-10-10-7-7-10-10-12------------------------12--|
|--------------------------------------------------------|
|--------------------------------------------------------|

|-------------------------------------------------------------------------------|
|-------------------------------------------------------------/13--11-10h11-10--|
|-12b----12b----12b----12b-------------------10-12-14-15-14-15------------------|
|-----15-----15-----15-----15-14-15-14\10-12------------------------------------|
|-------------------------------------------------------------------------------|
|-------------------------------------------------------------------------------|

|-----13-----13-12-10------------------------------|
|-13b----13b----------13-11--11-13-11-10-11--10----|
|-----------------------------------------------0--|
|--------------------------------------------------|
|--------------------------------------------------|
|--------------------------------------------------|

|-----------------------------------------------|
|-----------------------------------------------|
|-10/12-10-0-5/7\5------------------------------|
|------------------3-3/5-5-3-3------------------|
|------------------------------5-5-7-7-8-5~-----|
|-----------------------------------------------|

Enjoy!

            
            
Suggest correction
Creating personal tab
Creating personal tab
You can edit any tab online and save it as your Personal.

You can edit, replace or remove any tab part or add personal notes – all changes will be seen only by you.

Personal tabs can be accessed anytime from any device, even offline.
Learn more »
Give kudos to tab author, rate the tab!
1 2 3 4 5
comments
print report bad tab
5 comments total. Showing first comments.
0 reply
xH4NDSOFBLOODx 41 Jun 03, 2009 05:14 AM

0_o
perfection.

0 reply
ArseniK92 89 Jun 08, 2009 04:39 AM

JFAC songs coming soon.

0 reply
billybusa 6,379 Jul 06, 2009 02:09 PM

Hey! I tabbed that solo. :P

It's alright though, a lot of people think the tabs are official but it's fan made by a guy with a lot of time on his hands x)

guest
You may want to rate the tab now too:
select rating
Wanna post a correction for this tab? Suggest correction