Oops, an error
Loading. Please wait.

Black Leaf Falls tab

version 1
version 1

Whole song

10,165 views 27 this week
1 commentread comment
1 2 3 4 5
x 10
add to favorites
×
Save as Personal and add changes to this tab that will be seen only by you. Learn more ›
×
You can save this tab as Personal to edit and correct it or add notes. All changes will be seen only by you. Learn more »
launch autoscroll
font size
0
reset
how to read this tab
guitar tuner
edit
Autoscroll
slow
fast
+/-
esc
set tempo
stop
-------------------------------------------------------------------------------
                             BLACK LEAF FALLS - Sea Wolf
-------------------------------------------------------------------------------
Tabbed by: Sean
Email: chaossoldier17@hotmail.com

I can't say it's 100% perfect, but it seems right and it sounds good.

Tabbed using this video of a live performance of the song:
http://www.youtube.com/watch?v=JmKqSxi3tS4&feature=related

Tuning: Standard. Capo on 2nd fret.

Intro:

     Am        F         G         C    E
e|------------------------------------------| 
B|-----1--------------1---------0----1----0-|
G|-----2----2----2----2----0----0----0----1-|
D|-----2----2----3----3----0----0----2----2-|
A|---0------0----3--3------2--2----3----2---|
E|--------0----1---------3------------------|
  
    Am        F         G         C    E
|-------------------------------------------|---------------------|
|-----1--------------1---------0-----1----0-|----1----1----1----1-|
|-----2----2----2----2----0----0-----0----1-|----2----2----2----2-|
|-----2----2----3----3----0----0----2----2--|----2----2----2----2-|
|---0------0----3--3------2--2----3----2----|--0---------0--------|
|--------0----1---------3-------------------|-------0---------0---|
                                              Transition to Verse
Verses:

     Am        F         G         C    E
e|------------------------------------------| x3
B|-----2--------------1---------0----1----0-|
G|-----2----2----2----2----0----0----0----1-|
D|-----1----2----3----3----0----0----2----2-|
A|---0------0----3--3------2--2----3----2---|
E|--------0----1---------3------------------|

    Am        F         G         C    E
|-------------------------------------------|
|-----1--------------1---------0-----1----0-|
|-----2----2----2----2----0----0-----0----1-|
|-----2----2----3----3----0----0----2----2--|
|---0------0----3--3------2--2----3----2----|
|--------0----1---------3-------------------|

Chorus:
    
     F                   Am                  E                   C
e|------------------------------------------------------------------------------------|
B|-----1----1----1----1----1----1----1----1----0----0----0----0----1----1----1----1---|
G|-----2----2----2----2----2----2----2----2----1----1----1----1----0----0----0----0---|
D|-----3----3----3----3----2----2----2----2----2----2----2----2----2----2----2----2---|
A|--------3---------3----0---------0--------------2---------2----3---------3----------|
E|---1---------1--------------0---------0----0---------0--------------0---------0-----|
  
     F                   Am                  E                   C         E
e|------------------------------------------------------------------------------------|
B|-----1----1----1----1----1----1----1----1----0----0----0----0----1----1----0----0---|
G|-----2----2----2----2----2----2----2----2----1----1----1----1----0----0----1----1---|
D|-----3----3----3----3----2----2----2----2----2----2----2----2----2----2----2----2---|
A|--------3---------3----0---------0--------------2---------2----3---------2----------|
E|---1---------1--------------0---------0----0---------0--------------0---------0-----|

Bridge: Same chords as in the chorus, but play just the bass notes.

Intro
Am Transition
Verse 1
Chorus
Intro Pattern
Verse 2
Chorus
Bridge
Chorus
Outro (which is just the verse pattern)

************************************

| /   slide up
| \   slide down
| h   hammer-on
| p   pull-off
| ~   vibrato
| +   harmonic
| x   Mute note
| b   Bend
| pb  Pre-bend
| br  Bend release
| pbr Pre-bend release
| brb Bend release bend

************************************

            
            
Suggest correction
Creating personal tab
Creating personal tab
You can edit any tab online and save it as your Personal.

You can edit, replace or remove any tab part or add personal notes – all changes will be seen only by you.

Personal tabs can be accessed anytime from any device, even offline.
Learn more »
comments
print report bad tab
1 comment total.
0 reply
ergraham 12 Sep 12, 2014 08:12 AM

preeeeeeety sure the Am's starting the intro and verses are a little...upside-down. other than that, good

guest
You may want to rate the tab now too:
select rating
Wanna post a correction for this tab? Suggest correction