Oops, an error
Loading. Please wait.

Leaves In The River chords

version 1
version 1

Whole song

Interactive

7,776 views 30 this week
1 commentread comment
1 2 3 4 5
x 17
add to favorites
×
Save as Personal and add changes to this tab that will be seen only by you. Learn more ›
×
You can save this tab as Personal to edit and correct it or add notes. All changes will be seen only by you. Learn more »
launch autoscroll
font size
0
reset
transpose
0
reset
display chords
guitar tuner
edit
Autoscroll
slow
fast
+/-
esc
set tempo
stop
Strumming
There is no strumming pattern for this song yet. and get +5 IQ
-------------------------------------------------------------------------------------------------------
                              Sea Wolf - Leaves In The River 
-------------------------------------------------------------------------------------------------------

Album : Leaves In The River (2009)
Tempo : 68
E-mail: gwendal.mollo@orange.fr
Tabbed by: newg    (http://profile.ultimate-guitar.com/newg/)

Capo on 4 , he don't use a capo, but it's easier to play, transpose +4 for no capo version.
See my GUITAR PRO tab/ powertab for more.
I discover the song with a episode of "Raising Hope" who's matching perfectly the spirit.

Verses Tab : 
   A              Bm             E             A
e|--------------|--------------|--------------|--------------|
B|-2--2--2--2---|-3--3--3--3---|--------------|-2--2--2--2---|
G|---2--2--2--2-|---4--4--4--4-|-1--1--1--1---|---2--2--2--2-|
D|--------------|--------------|---2--2--2--2-|--------------|
A|-0------------|-2------------|--------------|-0------------|
E|--------------|--------------|-0------------|--------------|

[Intro]
A  A

[Verse]
  A
I met a girl on Halloween
     Bm
when she was lost and I was drunk
    E
and it was dark and cold out
        A
when we left

A
As we walked the rain started
    Bm
the leaves softened with every step
    E
and all around us people slept
 A
alone with their dreams

[Interlude] 
A Bm E A

[Verse]
    A
The wind came down from up the plains
     Bm
and blew the leaves all through the streets
  E
I wondered how far leaves
             A
could really fly

A
Would they rest in suburb yards?
   Bm
Or make it to the city? Or
E
would they end up in the river
          A     
just to float away?

A
She pointed to a small brick house
     Bm
and said it was were she grew up
    E
the lights were out
                      A
She asked if we could stop for a while

    A
Her hair was still just getting wet
    Bm
the water running down her neck
A                                 A
collecting in the hand print in cement beneath her feet

[Interlude] 
A Bm E A
A Bm E A

[Verse]
  A
Apparently there’d been a death
Bm
Someone close had nothing left
E
because she hadn’t loved him
       A
in the end

A
I saw her blush when I asked
Bm
if she always talked like that
    E
She said it only happened
         A
when she drank
  
    A
And later on I felt her hand
Bm
slipping into my cold fist
E
She promised me a kiss
           A
as soon as we got home

    A
Her costume had begun to tear
    Bm
She ran ahead and turned to me
    E
her laughter echoed through
       A
the empty streets

[Outro]
A Bm E A
A Bm E A 
A

            
            
Suggest correction
Creating personal tab
Creating personal tab
You can edit any tab online and save it as your Personal.

You can edit, replace or remove any tab part or add personal notes – all changes will be seen only by you.

Personal tabs can be accessed anytime from any device, even offline.
Learn more »
comments
print report bad tab
1 comment total.
+2 reply
Coricar 10 Apr 05, 2013 06:17 PM

These are very good. I am glad to see other Sea Wolf fans out there. But it is missing the piano but so I thought I would add it for those looking for it.
e-16---13--16--14-16-14-13--------14-16-14-13-------16-13---|
B--------------------------16-----------------16------------|
G-----------------------------------------------------------|
D-----------------------------------------------------------|
A-----------------------------------------------------------|
E-----------------------------------------------------------|

guest
You may want to rate the tab now too:
select rating
Wanna post a correction for this tab? Suggest correction