Oops, an error
Loading. Please wait.

Leaves In The River Ukulele Chords

version 2
version 2

Whole song

234 views 3 this week
no commentswrite comment
1 2 3 4 5
please rate
add to favorites
launch autoscroll
font size
0
reset
transpose
0
reset
display chords
guitar tuner
Autoscroll
slow
fast
+/-
esc
set tempo
stop
Help us to improve Ultimate-Guitar.com Take our survey!
×
Author
Difficulty
Continue tab through whole song
 A|---------------------------------------------------------------------------------|
 E|----3----3----3----3----4----4----4----4----1----1----1----1----3----3----3----3-|
 C|--3----3----3----3----3----3----3----3----2----2----2----2----3----3----3----3---|
 G|---------------------------------------------------------------------------------|

 During breaks you can play this tab (but it's not necessary) x2
 A|---------------------------------------|
 E|--10-8-7-10-8-10-8-7---8-10-8-7---10-7-|
 C|---------------------9----------9------|
 G|---------------------------------------|
Suggest correction
Give kudos to tab author, rate the tab!
1 2 3 4 5
comments
print report bad tab
guest
You may want to rate the tab now too:
select rating
Please do not post tabs as comments. Select "correction" instead!