Oops, an error
Loading. Please wait.

Winters Heir Tab

869 views 1 this week
no commentswrite comment
1 2 3 4 5
please rate
add to favorites
launch autoscroll
font size
0
reset
how to read this tab
guitar tuner
Autoscroll
slow
fast
+/-
esc
set tempo
stop
Help us to improve Ultimate-Guitar.com Take our survey!
×
Author
Difficulty
novice
----------------------------------------------------------------------------
                             Winter's Heir - Sea Wolf
----------------------------------------------------------------------------
Tabbed by: Macflash
Tuning: Standard
Basic Chord Pattern: G Em C C/Cb C/A Am Am7
Guitar seems to have a tiny bit of distortion and reverb.

For the intro and verses it goes pretty much like this:

You play the root of the chord, and then strum the full chord, do this a second time and 
transfer to the next chord with a a quick up stroke and hammer-on the chord.

|------3-------3-------0-------0--------0------------0--0--0--0--|
|------0-------0-------0-------0--------1------------1--1--1--1--|
|------0-------0-------0-------0---0----0---0--0--0--2--2--2--0--|
|------0-------0---0h2-2-------2---0h2--2---2--2--2--2--2--2--2--|
|------2-------2---0h2-2-------2---0h3--3---3--2--0--0--0--0--0--|
|--3---3---3---3---0---0---0---0---------------------------------|
"Stepped out in the melting ice,  took care in the comming light"
Play this pattern for every line all 3 of the verses.

For the chorus it goes

Bm           Am       Bm        Am
I thought it through, I think I wanted to
Am                                    C
When I saw you there upon your chair, in the light of winter's heir

then it goes back to the verse pattern starting at G.

After the third chorus it goes into a repeat of the
"When I saw you...winter's heir", for about 3 times and then goes
"With your amber eyes and navy hair, in the light of winters heir"
and it goes into an instrumental segment of Am that transitions to C by going to Am7 and 
on Am and pulling off to Am7

|---0----0------0----0------|
|---1----1------1----1------|
|---2-X7-0h2p0--0-X7-0------| X3
|---2----2------2----0h2p0--|
|---0----0------3----3------|
|---------------------------|

then play the verse pattern 3 times and end on G.

I'll add the otehr guitars riffs later

| /  slide up
| \  slide down
| h  hammer-on
| p  pull-off
| ~  vibrato
| +  harmonic
| x  Mute note
============================================================================
Suggest correction
Give kudos to tab author, rate the tab!
1 2 3 4 5
comments
print report bad tab
guest
You may want to rate the tab now too:
select rating
Please do not post tabs as comments. Select "correction" instead!