Oops, an error
Loading. Please wait.

Young Bodies intro tab

1,531 views 33 this week
1 commentread comment
1 2 3 4 5
2 more votes to show rating
add to favorites
×
Save as Personal and add changes to this tab that will be seen only by you. Learn more ›
×
You can save this tab as Personal to edit and correct it or add notes. All changes will be seen only by you. Learn more »
launch autoscroll
font size
0
reset
how to read this tab
guitar tuner
edit
Autoscroll
slow
fast
+/-
esc
set tempo
stop
Author
Difficulty
-------------------------------------------------------------------------------
                             Young Bodies - Sea Wolf
-------------------------------------------------------------------------------
Tabbed by:
E-mail:

Tuning: E A D G B E

e|---------------------------------------------------------------------------|
B|-----6-----6------------5----5-----------3-----3---------------------------------|
G|------0------0-----------0----0------------0----0--------------------------------|
D|------------------3---------------2------------------------------------------|
A|---5-----5------3----3----3-----3------1------1-----1-----------------------------|
E|---------------------------------------------------------------------------|

e|---------------------------------------------------------------------------|
B|-----1-----1----------3-----3-------1----1---------------------------------------|
G|------0-----0----------0-----0-------0----0--------------------------------------|
D|---------------------------------------------------------------------------|
A|----------------0---1-----1----1-3------------0----------------------------------|
E|---1-----1-----1-------------------1---1----1------------------------------------|

e|---------------------------------------------------------------------------|
B|---------------------------------------------------------------------------|
G|-----3-----3-----3----3-----3---------------------------------------------------|
D|------5-----5-----5----5-----5--------------------------------------------------|
A|---------------------------------------------------------------------------|
E|---3-----3-----3-----3----3-----------------------------------------------------|

Repeat the entire song
This is from eTown, so the set of 5 triplets at the end are not the same as what would be heard on Spotify or
anything of the sort.
It's my first tab, so feedback would be appreciated.


************************************

| /   slide up
| \   slide down
| h   hammer-on
| p   pull-off
| ~   vibrato
| +   harmonic
| x   Mute note
| b   Bend
| pb  Pre-bend
| br  Bend release
| pbr Pre-bend release
| brb Bend release bend

************************************

            
            
Suggest correction
Creating personal tab
Creating personal tab
You can edit any tab online and save it as your Personal.

You can edit, replace or remove any tab part or add personal notes – all changes will be seen only by you.

Personal tabs can be accessed anytime from any device, even offline.
Learn more »
Give kudos to tab author, rate the tab!
1 2 3 4 5
comments
print report bad tab
1 comment total.
0 reply
TukkerxD 247 Dec 14, 2015 05:21 AM

Nice man, been looking for this a while.
Try straighten up the outher lines of the tabs, makes it more descently.
Also the hammer-on and slide stuff is not nescessary and the tabbed by:...
But its awesome Thanks!!!

guest
You may want to rate the tab now too:
select rating
Wanna post a correction for this tab? Suggest correction