Oops, an error
Loading. Please wait.

Be There Tab

232 views 39 this week
no commentswrite comment
1 2 3 4 5
2 more votes to show rating
add to favorites
launch autoscroll
font size
0
reset
how to read this tab
guitar tuner
Autoscroll
slow
fast
+/-
esc
set tempo
stop
Help us to improve Ultimate-Guitar.com Take our survey!
×
Author
Difficulty
Tuning
intermediate
D# G# C# F# A# D#
About this tab version
There's a chord version of the whole song that exists, this is for the fingerpicked intro which doesn't seem to be tabbed anywhere. Was this info helpful? Yes No
Tabbed By: Sean Law
Tuning: Half-Step Down

[Intro]

e|-----7----7----7----7----7----7--|
B|o---8----8----8----8----8----8--o|
G|----------------------7----------|
D|-----------------9---------9-----|
A|o------7----7-------------------o|
E|--0------------------------------|


e|-----10------10------10-----10------10------10-|
B|---12------12------12-----12------12------12---|
G|--------11------11-------------11------11------|
D|-0----------------------0----------------------|
A|-----------------------------------------------|
E|-----------------------------------------------|


e|------------------------------------------------|
B|-----12------12------12^v----12------12------12-|
G|---12------12------12--^v--12------12------12---|
D|--------10------10--------------10------10------|
A|-0-----------------------0----------------------|
E|------------------------------------------------|


e|-----7----7----7----7----7----7--|
B|o---8----8----8----8----8----8--o|
G|----------------------7----------|
D|-----------------9---------9-----|
A|o------7----7-------------------o|
E|--0------------------------------|


e|-----10------10------10-----10------10------10-|
B|---12------12------12-----12------12------12---|
G|--------11------11-------------11------11------|
D|-0----------------------0----------------------|
A|-----------------------------------------------|
E|-----------------------------------------------|


e|-----------------------------|
B|-----12------12------12-12^v-|
G|---12------12------12---12^v-|
D|--------10------10------10---|
A|-0----------------------0----|
E|-----------------------------|


The strumming in the verse also uses the same chords as above, 
with some hammer-on's and pull-off's with the first chord and the same bend with the last one.


| ^ bend up
| v bend down
| o Repeat start
o| Repeat end
Suggest correction
Give kudos to tab author, rate the tab!
1 2 3 4 5
comments
print report bad tab
guest
You may want to rate the tab now too:
select rating
Wanna post a correction for this tab? Suggest correction