Oops, an error
Loading. Please wait.

Give Me Something tab

by Seafret
4,438 views 186 this week
3 commentsread comments
1 2 3 4 5
x 8
add to favorites
×
Save as Personal and add changes to this tab that will be seen only by you. Learn more ›
×
You can save this tab as Personal to edit and correct it or add notes. All changes will be seen only by you. Learn more »
launch autoscroll
font size
0
reset
how to read this tab
guitar tuner
edit
Autoscroll
slow
fast
+/-
esc
set tempo
stop
About this tab version
I've simplified the tab, and it's a little different from the original song. Was this info helpful? Yes No
By:AnneCreusa
{for 6-string guitar}
Tuning:Standard
Capo on the 2nd fret

[Intro]

e|---------------------------|----------------------------|
B|----8-----7~---------------|----8-----7-----12------5~--|
G|-------0-------------------|-------0----0--------0------|
D|---------------------------|----------------------------|
A|--7--7--5~-----------------|--7--7--5--5--10--10--3~----|
E|---------------------------|----------------------------|(x1)

[Verse]

e|---------------------------|----------------------------|
B|----8-----7~---------------|----8-----7----3-----5~-----|
G|-------0-------------------|-------0-----0-----0--------|
D|---------------------------|----------------------------|
A|--7--7--5~-----------------|--7--7--5--5--2--2--3~------|
E|---------------------------|----------------------------|
                                                           
e|---------------------------|----------------------------|
B|----8-----7~---------------|----8-----7-----12------5~--|
G|-------0-------------------|-------0----0--------0------|
D|---------------------------|----------------------------|
A|--7--7--5~-----------------|--7--7--5--5--10--10--3~----|
E|---------------------------|----------------------------|(x10)

***************

 | ~ Vibrato | 

***************
Suggest correction
Creating personal tab
Creating personal tab
You can edit any tab online and save it as your Personal.

You can edit, replace or remove any tab part or add personal notes – all changes will be seen only by you.

Personal tabs can be accessed anytime from any device, even offline.
Learn more »
comments
print report bad tab
3 comments total.
+1 reply
crozart78 10 May 04, 2017 02:01 PM

gg

+1 reply
zuzanapal 10 Jun 10, 2017 10:57 AM

verse is without the stop.. but otherwise its good tab, thank you

+1 reply
gufavmartins 10 Jun 25, 2017 08:24 PM

amazing tab. loved it ;3

guest
You may want to rate the tab now too:
select rating
Wanna post a correction for this tab? Suggest correction