Oops, an error
Loading. Please wait.

Karma Consequential Chords

49 views 1 this week
2 commentsread comments
1 2 3 4 5
2 more votes to show rating
add to favorites
launch autoscroll
font size
0
reset
transpose
0
reset
display chords
guitar tuner
Autoscroll
slow
fast
+/-
esc
set tempo
stop
Help us to improve Ultimate-Guitar.com Take our survey!
×
Author
Difficulty
intermediate
About this tab version
Would be the only version. Was this info helpful? Yes No
-------------------------------------------------------------------------------
                   Karma Consequential - Seahaven
-------------------------------------------------------------------------------
Tabbed by: Rebecca

[Intro] 
A        G#m     E        F#m 
A        G#m     E        E 

[Verse]
A        G#m     E        F#m        
She will pass by a noose tied with loose ends.
A        G#m    E   E
I will follow her.
A        G#m     E        F#m   
She buried a burden and called it a miracle.
A            G#m        E       E
Ain't it something how they grow?

 
[Pre Chorus Lick] 
N.C. (Or play the chords below)
e|---------------------------------------------------------------------------|
B|---------------------------------------------------------------------------|
G|---------------------------------------------------------------------------|
D|---------------------------------------------------------------------------|
A|-11-11-11-11-9-7-9-9-9-9-11-9-7-11-11-11-----------------------------------|  2x
E|---------------------------------------------------------------------------|



G#m  F#m  E  F#m  G#m  F#m E G#m
G#m  F#m  E  F#m  G#m  F#m E G#m


[Chorus]
N.C. (Or play chords below)
e|---------------------------------------------------------------------------|
B|---------------------------------------------------------------------------|
G|---------------------------------------------------------------------------|
D|---------------------------------------------------------------------------|
A|-11-11-11-11-9-7-9-9-9-9-11-9-11-11-11-11-9-7-9-9-11-9-7-------------------| 2x
E|---------------------------------------------------------------------------|



G#m           F#m      E   F#m           G#m
Fold up your story and stow it in a safe place.
F#m    G#m    F#m    E   F#m   G#m   F#m    E                           
Unfold in a decade or when you feel ready.
G#m          F#m    E   F#m          G#m
A title will follow; "Karma Consequential."
F#m    G#m    F#m    E   F#m   G#m   F#m    E    
Equipped with conclusion to eat up your soul.


[Verse]

A          G#m           E        F#m   
She watches the sun fall into its destiny.
A               G#m          E   E
Out of her hand, sunshine flees.
A           G#m              E             F#m 
Now living in darkness, she runs with the skeletons.
A               G#m            E     E
That ain't what it was in ninety-one.



[Pre Chorus Lick] 
N.C. (Or play the chords below)
e|---------------------------------------------------------------------------|
B|---------------------------------------------------------------------------|
G|---------------------------------------------------------------------------|
D|---------------------------------------------------------------------------|
A|-11-11-11-11-9-7-9-9-9-9-11-9-7-11-11-11-----------------------------------|  2x
E|---------------------------------------------------------------------------|

A  F#m  A

A  F#m  A


[Chorus]
N.C. (Or play chords below)
e|---------------------------------------------------------------------------|
B|---------------------------------------------------------------------------|
G|---------------------------------------------------------------------------|
D|---------------------------------------------------------------------------|
A|-11-11-11-11-9-7-9-9-9-9-11-9-11-11-11-11-9-7-9-9-11-9-7-------------------| 4x
E|---------------------------------------------------------------------------|

G#m           F#m      E   F#m           G#m
Fold up your story and stow it in a safe place.
F#m    G#m    F#m    E   F#m   G#m   F#m    E                           
Unfold in a decade or when you feel ready.
G#m          F#m    E   F#m          G#m
A title will follow; "Karma Consequential."
F#m    G#m    F#m    E   F#m   G#m   F#m    E    
Equipped with conclusion to eat up your soul.



G#m           F#m      E   F#m           G#m
In some odd years you will rest in a field,
F#m    G#m    F#m    E   F#m   G#m   F#m    E   
while remorse in the heat smells of ripening grapes.
G#m           F#m      E   F#m           G#m
I will come visit you when the poppies are blooming,
F#m    G#m    F#m    E   F#m   G#m   F#m    E   
and carry a bloodline on back to the root.


G#m B G#m 
or
e|-----------|
B|-----------|
G|-----------|
D|----9------|
A|-11---11---|
E|-----------|

[Bridge]
play until end of song
e|---------------------------------|------------------------------------------|
B|---------------------------------|------------------------------------------|
G|---------------------------------|------------------------------------------|
D|--------------------------9-7-6--|------------------------------------------|
A|-9-9-9-9-9/11\9-7-9-9-9-9--------|-9-9-9-9-9-9-9/11\9-7-9-9-9-9-9-9-7/6/2---| 
E|---------------------------------|------------------------------------------|  

We don't take time from misery, for anyone.

Don't it feel time, to let it be humanly?


************************************

| x   Dead note
| g   Grace note
| (n) Ghost note
| h   Hammer-on
| p   Pull-off
| r   Release
| >   Accented note
| t   Tapping
| b   Bend
| br  Bend release
| pb  Pre-bend
| pbr Pre-bend release
| /   Slide up
| \   Slide down
| ~   Vibrato
| s   Slap
| P   Pop
| PM  Palm mute
| TR  Trill
| N   Tremolo

************************************
Suggest correction
Give kudos to tab author, rate the tab!
1 2 3 4 5
comments
print report bad tab
2 comments total.
0 reply
sese19971 10 Nov 13, 2016 05:49 AM

THANK YOU SO MUCH IVE BEEN WAITING SO LONG, ITS MY FAVORITE SONG OFF REVERIE LAGOON!!

0 reply
Rebecca8 237 Nov 16, 2016 01:51 AM

Me too!!! I'm glad you like it!

guest
You may want to rate the tab now too:
select rating
Wanna post a correction for this tab? Suggest correction